» » »

Unsigned, Ingrown - All I Wanna Do Tabs (ver.1)

Artists:  A B C D E F G H I J K L M N O P Q R S T U V W X Y Z # 

Ingrown - All I Wanna Do Tabs (ver.1)

Unsigned Tabs
 Rating:
4/5 (4 votes)
Ingrown - All I Wanna Do lessons Tabs too difficult? Try these video lessons and learn fast
                THIS IS  LITTLE SONG THAT THE MEMBERS OF INGROWN MADE UP.  I PERSONALLY THINK THAT IT IS EASY BUT IT SOUNDS REALLY GOOD ESPECIALLY IF U PLAY IT WITH 2 GUITARIST.



INTRO:
e--------------------------------------------
b--------------------------------------------
g--------------------------------------------
d--------------------------------------------
a---5-5--555---7-7--777---3-3-333---5-5-555--      PM
E--------------------------------------------

e--------------------------------------------
b--------------------------------------------
g--------------------------------------------
d--------------------------------------------
a---5-5--555---7-7--777---3-3-333---5-5-555--      
E--------------------------------------------


VERSE:
e----------------------------------------------------
b----------------------------------------------------
g-----7-7--777---9-9-999---5-5-555---7-7-777---------
d-----7-7--777---9-9-999---5-5-555---7-7-777---------
a-----5-5--555---7-7-777---3-3-333---5-5-555---------
E----------------------------------------------------


CHORUS:
e-----------------------------------------------------
b-----------------------------------------------------
g-----77777777---99999999---77777777---77777777-------
d-----77777777---99999999---55555555---77777777-------
a-----55555555---77777777---33333333---55555555-------
E-----------------------------------------------------


ORDER:
Intro
Verse
Chorus
Verse
Chorus
verse
Chorus 2x
verse
            
Submit corrections

comments powered by Disqus
↑ Back to top | Unsigned Tabs for Ingrown - All I Wanna Do. Lyrics for acoustic guitar and electric guitar. Tablatures and chords are parodies/interpretations of the original songs. You may use it for private study, scholarship, research or language learning purposes only