» » »

Indiecisive - Untitled Bass tabs (ver.1)

Artists:  A B C D E F G H I J K L M N O P Q R S T U V W X Y Z # 

Indiecisive - Untitled Bass tabs (ver.1)

Unsigned
Rating:
0/5 (0 votes)

Hard to play? Try these video lessons and learn fast.
                Intro
-11---11---9---9---11---11---14---14---11---11---9---9---7---7---7---7----
----0----0---0---0----0----0----0----0----0----0---0---0---0---0----0---0-

Verse
-11---11---9---9---
----0----0---0---0-
-------------------
------------------- (x 3)

-7---7---7---7---
---0---0---0---0-
-----------------
-----------------

Chorus
-14---14---16---16---18---18---16---16---
----0----0----0----0----0----0----0----0-
-----------------------------------------
-----------------------------------------
            
Hard to play? Try these video lessons and learn fast. | Correct




comments powered by Disqus
↑ Back to top | Tablatures and chords are parodies/interpretations of the original songs. You may use it for private study, scholarship, research or language learning purposes only