» » »

Unsigned, Incoherent Ameoba- Cheap Change Tabs (ver.1)

Artists:  A B C D E F G H I J K L M N O P Q R S T U V W X Y Z # 

Incoherent Ameoba- Cheap Change Tabs (ver.1)

Unsigned Tabs
 Rating:
4/5 (4 votes)
Incoherent Ameoba- Cheap Change lessons Tabs too difficult? Try these video lessons and learn fast
1
                Song; Cheep Change



Verse
e[--------------------------------------------]
b[--------------------------------------------]
g[----------------------------7-7-7-7---------]
D[--5-5-5-5--2-2--7-7-7-7-2-2-7-7-7-7---------]  3x
A[--5-5-5-5--2-2--7-7-7-7-2-2-5-5-5-5---------]
E[--3-3-3-3--0-0--5-5-5-5-0-0-----------------]
Chorus
e[--------------------------------------------]
b[--------------------------------------------]
g[--------------------------------------------]
D[-5-5-5-5--7-7-7-7-9-9-9-9-------------------]
A[-5-5-5-5--7-7-7-7-9-9-9-9-------------------]
E[-3-3-3-3--5-5-5-5-7-7-7-7-------------------]


Verse same as the first

Chorus same as the first

verse same as the 1st and the 2nd

Solo
e[---9v-7v-6h9-----------8v-------------------]
b[-------------9v-7v-6h9----------------------]
g[--------------------------------------------] 2x
D[--------------------------------------------]
A[--------------------------------------------]
E[--------------------------------------------]

outro
e[--------------------------------------------]
b[--------------------------------------------]
g[--------------------------------------------]
D[--------------------------------------------]
A[--------------------------------------------]
E[--5v----3v--2h3-2p1-------------------------]
            
Submit corrections

comments powered by Disqus
↑ Back to top | Unsigned Tabs for Incoherent Ameoba- Cheap Change. Lyrics for acoustic guitar and electric guitar. 1 Tablatures and chords are parodies/interpretations of the original songs. You may use it for private study, scholarship, research or language learning purposes only