» » »

Imp - Everybodys A Victim Bass tabs (ver.1)

Artists:  A B C D E F G H I J K L M N O P Q R S T U V W X Y Z # 

Imp - Everybodys A Victim Bass tabs (ver.1)

Unsigned
Rating:
0/5 (0 votes)

Hard to play? Try these video lessons and learn fast.
                This is one of my bands songs, so it's not set in stone.

regular EADG tuning

Guitar opens with once through the verse riff.
bass verse
G|---------------------------------|
D|---------------------------------|
A|-3-3-3-33-2-2-2-22---------------|
E|-------------------0----0---0-0-0|

this is basically the entire song for the bass.
The backup gutar player plays a solo after the 1st
chourus, then after the second chorus the bass plays
a solo, here's mine
G|--9-9--11-9--9--11-9--12-12--14--12--11--11--12--11--9--9----|
D|-------------------------------------------------------------|
A|-------------------------------------------------------------|
E|-----------------------------------------------------------0-|

repeat that until your sick of soloing,
then when you want to get out of it play
G|-12--11--12-11--9--11--9-|
D|-------------------------|
A|-------------------------|
E|-------------------------|

feel free to add variations to any part of the song,
especially the solo, that's what I do.

Sorry it's only the bass part right now
I'll try to get the rest of it in later.
            
Hard to play? Try these video lessons and learn fast. | Correct




comments powered by Disqus
↑ Back to top | Tablatures and chords are parodies/interpretations of the original songs. You may use it for private study, scholarship, research or language learning purposes only