» » »

Imortaliun - World Of Desgrace Bass tabs (ver.1)

Artists:  A B C D E F G H I J K L M N O P Q R S T U V W X Y Z # 

Imortaliun - World Of Desgrace Bass tabs (ver.1)

Unsigned
Rating:
0/5 (0 votes)

Tabs too difficult? Try these video lessons and learn fast.
                Bassist: Pedro Luiz Blaite Dellabarba
Tab. By: Pedro Luiz Blaite Dellabarba
Tunning: E, A, D, G.

INTRO
 (With guitar)
(1 X)
|-------------------------------------------------|
|----------------------------------7------7-----9|
|---------7-----7--10--7---10-----10----------|
|--7-10----10-----------------------------------|

(3X)
|---------------------------------------------------|
|---------9----9---9------7---7---7--------------|
|---777----7----7---555---5--5-----------------|
|---------------------------------------------------|

VERSE 1
(2 X)

|-----------------------------------------------------------------|
|-----------------------------------------------------------------|
|---7777777--3333333-----55555---------------------------|
|---------------------------------------------5-3-5-3-5---------|

CHORUS
(2 X)

|--9----------5--------------------7----------------------|
|--9----------5--------5----------7-----------------------|
|--7----------3--------5----------5-----------------------|
|-----------------------3----------------------------------|

INTRO PART 2

VERSE 2
(2 X)

|--------9-----5------7--------------9---|
|------9-----5------7--------------9-----|
|----7-----3------5-------------7--------|
|-------------------------5---3-----------|

CHORUS
(2 X)

SOLO

|---------------------------------------------------|
|---------9----9---9------7---7---7--------------|
|---777----7----7---555---5--5-----------------|
|---------------------------------------------------|

CHORUS 
(2X)

END
            
Tabs too difficult? Try these video lessons and learn fast.




comments powered by Disqus
↑ Back to top | Tablatures and chords are parodies/interpretations of the original songs. You may use it for private study, scholarship, research or language learning purposes only