>
 >
I Miss You

I Miss You Guitar Tabs

Unsigned - I Miss You chords, tabs, tablatures, lyrics

Guitar lessons | Add/correct | Request | Top 50 tabs Artists:  A B C D E F G H I J K L M N O P Q R S T U V W X Y Z 0-9

I Miss You Guitar Tabs – Unsigned

CD, Sheet music, Poster

Do you like I Miss You? Share with your friends now
Tabs

Tuning:Standard

Whole song is clean with some reverb.this is my first guitar tab.Hope you guys enjoy.
intro-played kinda slow 2 times through.(2nd time end on the E)
|--5/8-7~---5-2h3--5/8-7--/12-8--7-3h5-/8-7~---5-3-2h3-2~----------------235-|
|-----------------------------------------------------------3-0-3/7-5~-------|
|----------------------------------------------------------------------------|
|----------------------------------------------------------------------------|
|----------------------------------------------------------------------------|
|----------------------------------------------------------------------------|

Riff A 1x

|--------------------------------0~--0-0-00-|
|--------------------------------0~--0-0-00-|
|---0--------0--------0--------0-0~--0-0-00-|
|--5-5-5-5--4-4-4-4--2-2-2-2--4--4~--4-4-44-|
|-7---7-7--5---5-5--3---3-3--5---5~--5-5-55-|
|-------------------------------------------|then

Riff B 1x

|-0-00-0-00-00-000-0-00-0-00-00-000-0-00-0-00-00-000-0-00-0-00-00-000-|
|-0-00-0-00-00-000-0-00-0-00-00-000-0-00-0-00-00-000-0-00-0-00-00-000-|
|-0-00-0-00-00-000-0-00-0-00-00-000-0-00-0-00-00-000-0-00-0-00-00-000-|
|-5-55-5-55-55-555-4-44-4-44-44-444-2-22-2-22-22-222-4-44-4-44-44-444-|
|-7-77-7-77-77-777-5-55-5-55-55-555-3-33-3-33-33-333-5-55-5-55-55-555-|
|-0-00-0-00-00-000-0-00-0-00-00-000-0-00-0-00-00-000-0-00-0-00-00-000-|then

Riff C 1x

|-0-00-0-00-00-000-0-00-0-00-00-000-0-00-0-00-0-0-0--000-0-00-0-00-00-000
|-0-00-0-00-00-000-0-00-0-00-00-000-0-00-0-00-0-0-0--000-0-00-0-00-00-000
|-5-55-5-55-55-555-4-44-4-44-44-444-5-55-5-55/9-9-9--777-4-44-4-44-44-444
|-7-77-7-77-77-777-5-55-5-55-55-555-7-77-7-77/101010-999-5-55-5-55-55-555
|-0-00-0-00-00-000-0-00-0-00-00-000-0-00-0-00-0-0-0--000-0-00-0-00-00-000
|------------------------------------------------------------------------
continued riff c
|-0-00-0-00-00-000-0-00-0-00-00-000-0-00-0-00-00-000-0-00-33-35-5-55-555-|
|-0-00-0-00-00-000-0-00-0-00-00-000-0-00-0-00-00-000-0-00-00-00-0-00-000-|
|-5-55-5-55-55-555-4-44-4-44-44-444-2-22-2-22-22-222-0-00-00-00-0-00-000-|
|-7-77-7-77-77-777-5-55-5-55-55-555-3-33-3-33-33-333-2-22-22-22-2-22-222-|
|-0-00-0-00-00-000-0-00-0-00-00-000-0-00-0-00-00-000-0-00-00-00-0-00-000-|
|------------------------------------------------------------------------|

Riff D 2x
|-----------------------------------------------------------------------------------
|-8-88-8-88-888-10-1010-10-1010-101010-13-1313-13-1313-131313-12-1212-12-1212-121212
|-0-00-0-00-000-0--0-0--0--0-0--0-0-0--0--0-0--0--0-0--0-0-0--0--0-0--0--0-0--0-0-0
|-5-55-5-55-555-7--7-7--7--7-7--7-7-7--10-1010-10-1010-101010-9--9-9--9--9-9--9-9-9
|-7-77-7-77-777-9--9-9--9--9-9--9-9-9--12-1212-12-1212-121212-10-1010-10-1010-101010
|-0-00-0-00-000-0--0-0--0--0-0--0-0-0--0--0-0--0--0-0--0-0-0--0--0-0--0--0-0--0-0-0
continued riff d                                            (2nd time,end with this)
|------------------------------------------------------------------|---|
|-8-88-8-88-888-10-1010-10-1010-101010-7-77-7-77-777-5-55-5-55-555-|-5~|
|-0-00-0-00-000-0--0-0--0--0-0--0-0-0--0-00-0-00-000-0-00-0-00-000-|-0~|
|-5-55-5-55-555-7--7-7--7--7-7--7-7-7--4-44-4-44-444-2-22-2-22-222-|-2~|
|-7-77-7-77-777-9--9-9--9--9-9--9-9-9--5-55-5-55-555-3-33-3-33-333-|-3~|
|-0-00-0-00-000-0--0-0--0--0-0--0-0-0--0-00-0-00-000-0-00-0-00-000-|-0~|
Riff E (slower)1x

|---------0----------------0----------------0----------------0--------
|-------0---0------------0---0------------0---0------------0---0------
|-----0-------0--------0-------0--------0-------0--------0------------
|---5----------------4----------------2----------------4---------5h7-5
|-7-------------7--5-------------5--3-------------3--5----------------
|---------------------------------------------------------------------
continued riff e
|---------0-----------------0-----------------0--------------------0--------|
|-------0---0-------------0---0-------------0---0---------------0-----0-----|
|-----0-------0---------0-------0---------0-------0----------0-----------0~-|
|---5-----------5h7---4-----------4h5---2-----------2-----4-----------------|
|-7-----------------5-----------------3----------------5--------------------|
|---------------------------------------------------------------------------|

Riff F 1x 
|-0~------0~------0--0-0--0--0-0--0-0--0-0-0--0--0-0--0--0-0--0-0--0-0-0-|
|-0~------0~------0--0-0--0--0-0--0-0--0-0-0--0--0-0--0--0-0--0-0--0-0-0-|
|-0~------0~------0--0-0--0--0-0--0-0--0-0-0--0--0-0--0--0-0--0-0--0-0-0-|
|-5~------4~------2--2-2--2--2-2--2-2--2-2-2--2--2-2--2--2-2--2-2--2-2-2-|
|-7~------5~------3--3-3--3--3-3--3-3--3-3-3--2--2-2--2--2-2--2-2--2-2-2-|
|------------------------------------------------------------------------|
Riff G 2x
|-3--3-3--3--3-3--3-3-3--3-3-3--3--3-3--3--3-3--3-3-3--3-3-3
|-0--0-0--0--0-0--0-0-0--0-0-0--0--0-0--0--0-0--0-0-0--0-0-0
|-2--2-2--2--2-2--2-2-2--2-2-2--0--0-0--0--0-0--0-0-0--0-0-0
|-2--2-2--2--2-2--2-2-2--2-2-2--2--2-2--2--2-2--2-2-2--2-2-2
|-0--0-0--0--0-0--0-0-0--0-0-0--3--3-3--3--3-3--3-3-3--3-3-3
|-----------------------------------------------------------
continued riff g
|-3--3-3--3--3-5--5-5-5--5-5-5--3--3-3--3--3-3--3-3-3--3-3-3-|
|-0--0-0--0--0-0--0-0-0--0-0-0--0--0-0--0--0-0--0-0-0--0-0-0-|
|-0--0-0--0--0-0--0-0-0--0-0-0--0--0-0--0--0-0--0-0-0--0-0-0-|
|-2--2-2--2--2-2--2-2-2--2-2-2--2--2-2--2--2-2--2-2-2--2-2-2-|
|-2--2-2--2--2-2--2-2-2--2-2-2--2--2-2--2--2-2--2-2-2--2-2-2-|
|------------------------------------------------------------|
Riff H 1x
|-3--3-3--3--3-3--3-3-3--3-3-3--3--3-3--3-3/5-5-5--5-5-3~----0~---|
|-0--0-0--0--0-0--0-0-0--0-0-0--0--0-0--0-0-0-0-0--0-0-0~----0~---|
|-2--2-2--2--2-2--2-2-2--2-2-2--0--0-0--0-0-0-0-0--0-0-0~----0~---|
|-2--2-2--2--2-2--2-2-2--2-2-2--2--2-2--2-2/4-4-4--4-4-2~----2~---|
|-0--0-0--0--0-0--0-0-0--0-0-0--3--3-3--3-3/5-5-5--5-5-3~----2~---|
|-----------------------------------------------------------------|
outro riff 1x
|-/7~-5~----3--2h3p2-0~-----------<12>~--------<5>~~~-|
|-----------------------------<12>~---------<5>~------|
|-------------------------<12>~----------<5>~---------|
|-----------------------------------------------------|
|-----------------------------------------------------|
|-----------------------------------------------------|
Key
/:slide up
h:hammer-on
p:pull-off
~:note ring
<>:harmonic

finally finished this!!i wrote this song for my gf.i love u danelle and i always will.hope u guys enjoy it.please rate





Comments


Popular Unsigned tabs & chords
1-10 Bass Tabs
Globber-Chicken Bass Tabs
Lithium - Mr Fatigue Bass Tabs
Man With Van - Anagram Of I Ex Pot Nerd Bass Tabs
Suicide Method - Demonic Justice Bass Tabs
Dire Mien-Stain On The Letter Tabs
Disdained - First Song Tabs
Floor 13 - Overdosed Relationship Tabs
Heather Tabs
Instruments Playing People - The... Tabs


Song lyrics



↑ Back to top | Tablatures and chords are parodies/interpretations of the original songs. You may use it for private study, scholarship, research or language learning purposes only
© 2014 AZChords.com Contact us | Privacy policy | DMCA | Add/correct tabs | Request tabs | Top 50 tabs