» » »

Unsigned, Idle Work - That One We Always Play Bass tabs (ver.1)

Artists:  A B C D E F G H I J K L M N O P Q R S T U V W X Y Z # 

Idle Work - That One We Always Play Bass tabs (ver.1)

Unsigned Tabs
Rating:
0/5 (0 votes)
Idle Work - That One We Always Play lessons Tabs too difficult? Try these video lessons and learn fast
                Tuning: The great thing about this song is it works great with either
          CGCF tuning
       or EADG tuning
For simplicity I'll use EASG for now.

~ - Let ring
^ - Pluck it
/ - Slide up
\ - Slide down


[Intro]
G ------------------------------------------| 
D --------------------0~--------0-----------| 
A --0~------03~------3-----------3--332-----| 
E ------------------------------------------| 

[Chorus]
G ------------------------------------------------------------------------| 
D ------------------------------------3333333300003333--------------------| 
A --0000000000000000-3333333333333333------------------3333333333332222---| 
E ------------------------------------------------------------------------| 

[Verse]
G ------------------------------------------| 
D ----------------------------3~---3--------| 
A --0--03~---0--0320~----0-003-------3-0~---| 
E ------------------------------------------| 

[Outro]
G ------------------------------------------| 
D ------------------0~-----0----------------|
A --0~-----03~-----3--------320~------------|
E ------------------------------------------|

IN THIS ORDER

Intro x2
Chorus x2
Verse x2
Chorus x4
Verse x2
Chorus x2
Intro x1
Outro x1

I might update this later if the band changes it.
Peace out, and free the animals! DnL
            
Submit corrections

comments powered by Disqus
↑ Back to top | Unsigned Bass for Idle Work - That One We Always Play. Lyrics for acoustic guitar and electric guitar. Tablatures and chords are parodies/interpretations of the original songs. You may use it for private study, scholarship, research or language learning purposes only