» » »

Unsigned, Idiot Box - Midnightmare Tabs (ver.1)

Artists:  A B C D E F G H I J K L M N O P Q R S T U V W X Y Z # 

Idiot Box - Midnightmare Tabs (ver.1)

Unsigned Tabs
 Rating:
4/5 (4 votes)
Idiot Box - Midnightmare lessons Tabs too difficult? Try these video lessons and learn fast
1
                Dropped "D" tuning
Into/verse
Echo Effect (Delay)
e----------------------------------
B----------------------------------
G----------------------------------
D--------3-3-3-2-2-----------------   Play 12X
A------------------3-3-3-----------
D--0-0-0-----------------3-3-3-2-2-
Chorus
e----------------------------
B----------------------------
G--------------5-5-5-----7-7-
D--0-0-0-8-8-8-3-3-3-x-x-5-5- Play 8x
A--0-0-0-8-8-8-3-3-3-x-x-5-5-
D--0-0-0-8-8-8-3-3-3-x-x-5-5-
Bridge
e-------------------
B-------------------
G-------10-10-10-10-
D-------------------
A--0-0-x-8--8--8--8-
D--0-0-x------------
P.M.==
Little Interlude thing...
e-------------------------
B-------------------------
G-------------------------
D--------3-3-3-2-2-5-5-5-4(Let Ring)
A-------------------------
D--0-0-0------------------
Thats It! E-mail me about our CD or About the band and our shows
            
Submit corrections

comments powered by Disqus
↑ Back to top | Unsigned Tabs for Idiot Box - Midnightmare. Lyrics for acoustic guitar and electric guitar. 1 Tablatures and chords are parodies/interpretations of the original songs. You may use it for private study, scholarship, research or language learning purposes only