» » »

Unsigned, Idiot Box - Bury You Tabs (ver.1)

Artists:  A B C D E F G H I J K L M N O P Q R S T U V W X Y Z # 

Idiot Box - Bury You Tabs (ver.1)

Unsigned Tabs
 Rating:
4/5 (4 votes)
Idiot Box - Bury You lessons Tabs too difficult? Try these video lessons and learn fast
                Bury You
Band- XtinKt
Standard Tuning (E-A-D-G-B-e)
Intro
e----------
B----------
G-------(5)
D--2-2--(5) P.M. The first 2 notes.(5) are natural harmonics. Repeat 8x
A--2-2-----
E--0-0-----
Verse
e----------------------------------------------------------
B----------------------------------------------------------
G----------------------------------------------------------
D-----------------------------------------------5-5-5-4-4-4 Repeat 8x
A-2-2-2-2-2-2-2-2-2-5-5-5-4-4-4-2-2-2-2-2-2-2-2-3-3-3-2-2-2
E-0-0-0-0-0-0-0-0-0-3-3-3-2-2-2-0-0-0-0-0-0-0-0------------
Chorus
e-------------------------------------
B-------------------------------------
G-------------------------------------
D--5-5-5-5-5--------------------------
A--3-3-3-3-3-5-5-7-7-7-2-2-2----------
E------------3-3-5-5-5-0-0-0----------
Bridge
e---------------------------------------------------
B---------------------------------------------------
G---------------------------------------------------
D--------------5-5-5-5-7-7-7-------------5-5-5------
A--2-2-2-4-4-5-3-3-3-3-5-5-5-2-2-2-4-4-5-3-3-3-5-5-7
E--0-0-0-2-2-3---------------0-0-0-2-2-3-------3-3-5
            
Submit corrections

comments powered by Disqus
↑ Back to top | Unsigned Tabs for Idiot Box - Bury You. Lyrics for acoustic guitar and electric guitar. Tablatures and chords are parodies/interpretations of the original songs. You may use it for private study, scholarship, research or language learning purposes only