» » »

Unsigned, Homespun- Thanks In Small Words Bass tabs (ver.1)

Artists:  A B C D E F G H I J K L M N O P Q R S T U V W X Y Z # 

Homespun- Thanks In Small Words Bass tabs (ver.1)

Unsigned Tabs
 Rating:
4/5 (4 votes)
Homespun- Thanks In Small Words lessons Tabs too difficult? Try these video lessons and learn fast
                Normal Tuning

(INTRO)
G |---------7-------7-------6-------6-------7-------7-------0-------0--
D |---0-0-0---0-0-0---0-0-0---0-0-0---0-0-0---0-0-0---0-0-0---0-0-0----  (x4)
A |--------------------------------------------------------------------
E |--------------------------------------------------------------------

(VERSE) P.M.
G |---7-7-7-7-6-6-6-0-0-0-0-0-0-0-0-0-7-7-7-7-6-6-6-7-7-7-7-7-0-0-0-0--
D |---0-0-0-0-0-0-0-0-0-0-0-0-0-0-0-0-0-0-0-0-0-0-0-0-0-0-0-0-0-0-0-0--  (x5)
A |--------------------------------------------------------------------
E |--------------------------------------------------------------------

(PRE-CHORUS)
G |---7-6-0--
D |---0-0-0--
A |----------
E |----------

(CHORUS)
G |------------------------------------
D |---------------------------4-4-2-2--  (x3)
A |---2-2-2-2-4-4-4-4-5-5-5-5----------
E |------------------------------------

end chorus with
G |-----------------------------------------------------
D |---------------------------4-4-4-4-2-2-2-2-0-0-0-0-0-
A |---2-2-2-2-4-4-4-4-5-5-5-5---------------------------
E |-----------------------------------------------------

(VERSE)
(PRE-CHORUS)
(CHORUS)
(DURING GUITAR SOLO)
G |--------------
D |---------4p2--
A |---2-4-5------
E |--------------

(CHORUS until end)
            
Submit corrections

comments powered by Disqus
↑ Back to top | Unsigned Bass for Homespun- Thanks In Small Words. Lyrics for acoustic guitar and electric guitar. Tablatures and chords are parodies/interpretations of the original songs. You may use it for private study, scholarship, research or language learning purposes only