» » »

Unsigned, Homespun- Questions Of A Beautfiul Death Bass tabs (ver.1)

Artists:  A B C D E F G H I J K L M N O P Q R S T U V W X Y Z # 

Homespun- Questions Of A Beautfiul Death Bass tabs (ver.1)

Unsigned Tabs
Rating:
0/5 (0 votes)
Homespun- Questions Of A Beautfiul Death lessons Tabs too difficult? Try these video lessons and learn fast
                Normal Tuning

(INTRO- Part 1)-x2
G |---8~-11-8~-11-9~-11-9~--
D |---9~--9-8~--8-9~--9-9~--
A |-------------------------
E |-------------------------

(INTRO- Part 2)-x4
G |---8-8-8-8-8-11-8-8-8-8-8-11-9-9-9-9-9-11-9-9-9-9-9-11--
D |---9-9-9-9-9--9-8-8-8-8-8--8-9-9-9-9-9--9-9-9-9-9-9--9--
A |--------------------------------------------------------
E |--------------------------------------------------------

(VERSE)
G |----------------------------------------------------------------------------
D |----------------------------------------------------------------------------
A |---------------------------------------------------11-11-11-11-11-11-11-11--
E |---9-9-9-9-9-9-9-9-8-8-8-8-8-8-8-8-9-9-9-9-9-9-9-9--------------------------

(CHORUS)
G |--------------------------------------------------------------------
D |--------------------------------------------------------------------
A |---2-2-2-2-2-2-2-2-5-5-5-5-5-5-5-5----------------------------------
E |-----------------------------------5-5-5-5-5-5-5-5-2-2-2-2-2-2-2-2--

(INTRO- Part 2)
(VERSE)
(CHORUS)
(DURING GUITAR SOLO PLAY INTRO- Part 1)
(VERSE AGAIN- No Bass)
(CHORUS)
            

comments powered by Disqus
↑ Back to top | Unsigned Bass for Homespun- Questions Of A Beautfiul Death. Lyrics for acoustic guitar and electric guitar. Tablatures and chords are parodies/interpretations of the original songs. You may use it for private study, scholarship, research or language learning purposes only