» » »

Unsigned, Homenaje A Los Bj´S Tabs (ver.1)

Artists:  A B C D E F G H I J K L M N O P Q R S T U V W X Y Z # 

Homenaje A Los Bj´S Tabs (ver.1)

Unsigned Tabs
 Rating:
4/5 (4 votes)
Homenaje A Los Bj´S lessons Tabs too difficult? Try these video lessons and learn fast
1
                this song comes from ahuevoland and it was writen by a guy named chomburone y hope you enjoy this song
e------------------------------------------------------------------------------------
b------------------------------------------------------------------------------------
g------------------------------------------------------------------------------------
d--------7---5/p----------7---5/0--------7--5-----5--7--------7--5--5h7--------------
a----------------------------------------------7-------------------------------------
e---5-5-------------5-5--------------5-5-----------------5-5-------------------------


e------------------------------------------------------------------------------------
b------------------------------------------------------------------------------------
g------------------------------------------------------------------------------------
d--------7---5/p----------7---5/0--------7--5-----5--7--------7--5--5h7--------------
a----------------------------------------------7-------------------------------------
e---5-5-------------5-5--------------5-5-----------------5-5-----------------------in memory of chomburone   1994   2000
            
Submit corrections

comments powered by Disqus
↑ Back to top | Unsigned Tabs for Homenaje A Los Bj´S. Lyrics for acoustic guitar and electric guitar. 1 Tablatures and chords are parodies/interpretations of the original songs. You may use it for private study, scholarship, research or language learning purposes only