» » »

Unsigned, Hijacked Mojo - Yellow Paper Bass tabs (ver.1)

Artists:  A B C D E F G H I J K L M N O P Q R S T U V W X Y Z # 

Hijacked Mojo - Yellow Paper Bass tabs (ver.1)

Unsigned Tabs
 Rating:
4/5 (4 votes)
Hijacked Mojo - Yellow Paper lessons Tabs too difficult? Try these video lessons and learn fast
                Standard Tuning  (E,A,D,G)

~ = lets note ring

Intro:

(12's not 1,2 ans 10's not 1,0)                                  
 
                     x10
G:---------------------------------------------------
D:---------------------------------------------------
A:-----------3333-0000---------------10101010-7777---
E:-0000-5555-----------7777-12121212-----------------

         x4                   x4
G:-------------------*----------------------
D:-------------------*----------------------
A:-5-5---------------*--5555-----55555555---
E:-----3-3--5-5-5-5--*-------3333-----------


Verse:

G:---------------------
D:---------------------
A:----------55555555---
E:-6666-5555-----------


Chorus:

G:---------------
D:---------------
A:----------3~---
E:-3~-2~-0~------


The timing for this song is weird so listening to the song would be advisable!!!
If you do not own the "Hijacked Mojo" cd then contact me at my e-mail address!!!
            
Submit corrections

comments powered by Disqus
↑ Back to top | Unsigned Bass for Hijacked Mojo - Yellow Paper. Lyrics for acoustic guitar and electric guitar. Tablatures and chords are parodies/interpretations of the original songs. You may use it for private study, scholarship, research or language learning purposes only