» » »

Hesh Slingers - Quick Refinance Bass tabs (ver.1)

Artists:  A B C D E F G H I J K L M N O P Q R S T U V W X Y Z # 

Hesh Slingers - Quick Refinance Bass tabs (ver.1)

Unsigned
Rating:
0/5 (0 votes)

Hard to play? Try these video lessons and learn fast.
                G:---------------------------------------------------------------------------- x7
d:---------------------------------------------------------------------------------
A:-----3-3-4-4---------3-3-4-4---------3-3-4-4---------3-3-4-4---------3-3-4-4-----
E:-1-1---------5-5-1-1---------5-5-1-1---------5-5-1-1---------5-5-1-1---------5-5-

G:-------------------------------------------------------------------------- x5 
D:---------------------------------------------------------------------------------
A:-----------------------------3-3-0-0---------------------------------3-3-0-0-----
E:-0-0-1-1-3-3-0-0-----0-0-1-1-------------0-0-1-1-3-3-0-0-----0-0-1-1-------------
            
Hard to play? Try these video lessons and learn fast. | Correct




comments powered by Disqus
↑ Back to top | Tablatures and chords are parodies/interpretations of the original songs. You may use it for private study, scholarship, research or language learning purposes only