» » »

Hellhound - Dreaming Far Away Bass tabs (ver.1)

Artists:  A B C D E F G H I J K L M N O P Q R S T U V W X Y Z # 

Hellhound - Dreaming Far Away Bass tabs (ver.1)

Unsigned
Rating:
0/5 (0 votes)

Tabs too difficult? Try these video lessons and learn fast.
                Intro:
G|--------------------------------------------------| 
D|-5-5----------------------5-5---------------------| 
A|-----3-3-3--5-5-5-------------3-3-3--5-5-7p5-7p5--| 
E|------------------3-3-5-3-------------------------| 

Verse:
G|-------------------------------------| 
D|-------------------------------------| 
A|-2222222222222222-333333333333-44-55-| (2nd time 3h5-3h5 instead of 3-44-55)
E|-------------------------------------| 
(in the verse after the solo, the 2nd time play A|-2222222222222222-3~|)

Chorus:
G|--------------------------------------------------------------------| 
D|-55555555-----------------------------------------------------------| 
A|----------33333333-55555555-33333333-22222222-3333-5-7p5-7p5--------| 
E|--------------------------------------------------------------------| 

Solo:
G|-------------------------------------| 
D|-5-55-5h7p5--------------------------| 
A|------------5-55-5-5h7p5-------------| 
E|-------------------------5-55-55-7-8~| 2x

G|-------------------------------| 
D|-------------------------------| 
A|--------------2-22-22-33-2-0---| 
E|-2-22-22-4-5~----------------3-| 2x

Outro:
G|--------------------------------------------------------| 
D|-55555555-----------------------------------------------| 
A|----------33333333-55555555-33333333-22222222-33333333--| 
E|--------------------------------------------------------| 

G|---------------------------| 
D|---------------------------| 
A|-22222222-33333333-2~-3~---| 
E|-------------------------3~| 

-Intro (2x)
-Verse (4x)
-Intro (1x)
-Verse (4x)
-Chorus (2x)
-Verse (4x)
-Solo (1x)
-Verse (2x)
-Silence
-Chorus (3x)
-Outro (1x)
            
Tabs too difficult? Try these video lessons and learn fast.




comments powered by Disqus
↑ Back to top | Tablatures and chords are parodies/interpretations of the original songs. You may use it for private study, scholarship, research or language learning purposes only