>
 >
Height Of Redemption-Untitled

Height Of Redemption-Untitled Guitar Tabs

Unsigned - Height Of Redemption-Untitled chords, tabs, tablatures, lyrics

Guitar lessons | Add/correct | Request | Top 50 tabs Artists:  A B C D E F G H I J K L M N O P Q R S T U V W X Y Z 0-9

Height Of Redemption-Untitled Guitar Tabs – Unsigned

CD, Sheet music, Poster

Do you like Height Of Redemption-Untitled? Share with your friends now
Tabs
Standard Tuning

Intro

e------------------------------------------------
b------------------------------------------------
g------------------------------------------------
d------------------------------------------------
a-------------------------------------2-2-2-1-1-1
e-0-0-0-0-0-0-3-3-3-2-2-2-0-0-0-0-0-0------------

Verse

e--------------------------------
b--------------------------------
g--------------------------------
d--------------------------------
a-1-1-1-2-2-2-1-1-1-3-3-3-2-2/5-5
e-1-1-1-2-2-2-1-1-1-3-3-3-2-2/5-5

Pre chorus

e-
b-
g-
d-
a-x-x-x-x-x-x-x-x-x-x-x-x-x-x-x-x
e-x-x-x-x-x-x-x-x-x-x-x-x-x-x-x-x

Chorus

e----------------------------------
b----------------------------------
g----------------------------------
d----------------------------------
a-0-0-1-1-4-4-3-3---7-7-6-6-9-9-8-8
e-0-0-1-1-4-4-3-3---7-7-6-6-9-9-8-8

Bridge

e---------------------------------------------------------
b---------------------------------------------------------
g---------------------------------------------------------
d---------------------------------------------------------
a-0--1--0-1-0-2--0--1--0-1-0-2--0--1--0-1-0-2--0--1--0-3-2
e-0--1--0-1-0-2--0--1--0-1-0-2--0--1--0-1-0-2--0--1--0-3-2

Outro

e------------------------------------------------
b------------------------------------------------
g------------------------------------------------
d------------------------------------------------
a-------------------------------------2-2-2-1-1-1
e-0-0-0-0-0-0-3-3-3-2-2-2-0-0-0-0-0-0------------



This is the first tab 4 this,we havnt made any changes or anything, i tabbed it as i played it and we will make changes soon enough.  please rate anyway!!!


PS this is the fisrt song i have wrote myself.i have only covered songs before this!





Comments


Popular Unsigned tabs & chords
1-15 Bass Tabs
Lines Of Crossing Bass Tabs
System Flatline - Fair Weathered Friends Bass Tabs
The Rad Tomcats - Free Me Bass Tabs
Triskiadekaphobia - Lmls Do It Better Bass Tabs
Yeah Get Naked - Shutup Stuart Bass Tabs
Black Dawn-Youe Alone Tabs
Downward Spiral- Bass Guitar Doodle Tabs
Invalid - #1 Tabs
Lastdown - Why Dont You Care Tabs


Song lyrics



↑ Back to top | Tablatures and chords are parodies/interpretations of the original songs. You may use it for private study, scholarship, research or language learning purposes only
© 2014 AZChords.com Contact us | Privacy policy | DMCA | Add/correct tabs | Request tabs | Top 50 tabs