» » »

Unsigned, Heather Tabs (ver.1)

Artists:  A B C D E F G H I J K L M N O P Q R S T U V W X Y Z # 

Heather Tabs (ver.1)

Unsigned Tabs
 Rating:
4/5 (4 votes)
Heather lessons Tabs too difficult? Try these video lessons and learn fast
1
                / slide       
                   

                     inro x4
----0-0-----0-0-----------------------0-------------------------------------
--3------2--------0---0-0----0-0---2----------------------------------------
----------------3---2------3------------------------------------------------
                  course x8
--------0-------0------0----------0---------0-------0-----------------------
-----0--------0-----0-----2-----2----2----0---2---2-------------------------
---3-------2------3----------3----------2-------2---------------------------
                solo play x2
---------0----0-----0----0------0---0--------0----0----0------0----0--------
---7/10 ----9----9-----5----5-7---7----7/10-----9---9----3--5----5----------
                 course
--------0-----0--0------0----------0----------------------------------------
------0-----0---0--2---2---2-----0---2--2-----------------------------------
----3-----2---3------3---------2-------2------------------------------------
            
Submit corrections

comments powered by Disqus
↑ Back to top | Unsigned Tabs for Heather. Lyrics for acoustic guitar and electric guitar. 1 Tablatures and chords are parodies/interpretations of the original songs. You may use it for private study, scholarship, research or language learning purposes only