>
 >
Headed For Ternity - Simple As Nuttin

Headed For Ternity - Simple As Nuttin Guitar Tabs

Unsigned - Headed For Ternity - Simple As Nuttin chords, tabs, tablatures, lyrics

Guitar lessons | Add/correct | Request | Top 50 tabs Artists:  A B C D E F G H I J K L M N O P Q R S T U V W X Y Z 0-9

Headed For Ternity - Simple As Nuttin Guitar Tabs – Unsigned

CD, Sheet music, Poster

Do you like Headed For Ternity - Simple As Nuttin? Share with your friends now
Tabs
Hey readers of this tab, we are Headed For Eternity, a new band
I’ve been a guitarist for two weeks now, so if you think this tab
is feeble, it's because I wrote it, so don’t diss … plz.
This song (simple as nuttin) just came into my head 2-3 days
ago so I thought I’d tab it for a grin. Enjoy.
                Law

Riff 1:
D|----------------------------------------------------------------------
A|----------------------------------------------------------------------
E| -12-0-0-12-0-0-12—12-0-0-12-0-0-12—15-0-0-15-0-0-15—15-0-0-15-0-0-15-

Riff 2:
D|----------------------------------------------------------------------
A|----------------------------------------------------------------------
E| -12-0-0-12-0-0-12—12-0-0-12-0-0-12—18-0-0-18-0-0-18—18-0-0-18-0-0-18-

Riff 3:          x2            x2
D|----------------------|------------------------
A|----------------------|------------------------
E|-14—14—14—14—14—14—0—0|-15-15-15-15-15-15-0-0~~

Riff 4:
E|-----------------------------------------------
B|-----------------------------------------------
G|-----------------------------------------------
D|-8-8-8-8-8---8-8---8-8---6-6-6-6-6---6-6---6-6-
A|-9-9-9-9-9---9-9---9-9---7-7-7-7-7---7-7---7-7-
E|-7-7-7-7-7---7-7---7-7---5-5-5-5-5---5-5---5-5-

Riff 5:
E|-----------------------------------------------
B|-----------------------------------------------
G|-----------------------------------------------
D|-5-5-5-5-5---5-5---5-5---2-2-2-2-2---5-5---6-6-
A|-6-6-6-6-6---6-6---6-6---3-3-3-3-3---6-6---7-7-
E|-4-4-4-4-4---4-4---4-4---1-1-1-1-1---4-4---5-5-

Riff 6:
E|-----------------------------------------------------------------
B|-----------------------------------------------------------------
G|-----------------------------------------------------------------
D|-8-8-8-8-8-8-8-8-8-8-8-8-8-8-8-8-8-8-8-8-8-8-8-8-8-8-8-8-8-8-8-8-
A|-9-9-9-9-9-9-9-9-9-9-9-9-9-9-9-9-9-9-9-9-9-9-9-9-9-9-9-9-9-9-9-9-
E|-7-7-7-7-7-7-7-7-7-7-7-7-7-7-7-7-0-0-0-0-0-0-0-0-0-0-0-0-0-0-0-0-

Order: Riff 1 --- played on bridge
Riff 2 --- played on bridge
Riff 1 --- guitar 2 comes in
Riff 2
Riff 3 --- played 2 times
Riff 4
Riff 5
Riff 4
Riff 5
Riff 6 --- played 4 times
Riff 4
Riff 5
Riff 4
Riff 5
Riff 6 --- played 4 times
Riff 3 --- played 2 times
Solo   --- Riff 1 , Riff 2 Riff 1, Riff 2 played by guitar 2
Riff 6 --- played 8 times
Riff 1
	END
i lobbed in a lil solo which sounds like the intro of Ashes In
The Fall (R.A.T.M) but it's a lil different. guitar 2 plays 
Riff 1 and Riff 2 twice during the solo

E|-18-------18-------18-18-------18-------18-
B|----15-15-----15-15------15-15----15-15----
G|-------------------------------------------

E|-18-------18-------18-18-------18-------18-
B|-------------------------------------------
G|----15-15-----15-15------15-15----15-15----

E|-18-------18-------18-18-------18-------18-
B|----15-15-----15-15------15-15----15-15----
G|-------------------------------------------

E|-20-------20-------20-20-------20-------20\5~~~~~
B|-------17--------17--------17-------17-----------
G|----17--------17--------17-------17--------------
Leave the last note ring for a few seconds on the solo and Riff 2





Comments


Popular Unsigned tabs & chords
Buzz Bombs - Screw Cops Bass Tabs
Chemical 0 - Inequality Bass Tabs
The Accidentals - Travis Song Bass Tabs
Circuit 69er-Waiting Tabs
Deathstruction- For You Tabs
Friday Night Fights-You And Me Tabs
Glytch - Frustrated Tabs
H8s - Alt Jeg Hader Tabs
Hard Times Tabs
Just An Easy Song I Made Tabs


Song lyrics



↑ Back to top | Tablatures and chords are parodies/interpretations of the original songs. You may use it for private study, scholarship, research or language learning purposes only
© 2014 AZChords.com Contact us | Privacy policy | DMCA | Add/correct tabs | Request tabs | Top 50 tabs