» » »

Unsigned, Haze- Hell Tabs (ver.1)

Artists:  A B C D E F G H I J K L M N O P Q R S T U V W X Y Z # 

Haze- Hell Tabs (ver.1)

Unsigned Tabs
Rating:
0/5 (0 votes)
Haze- Hell lessons Tabs too difficult? Try these video lessons and learn fast
                
Intro:
[------------------------------------------------------------]
[------------------------------------------------------------]
[----------------------7-7-7-7---5-5-5---9-9---9---9-9-9-9---]
[--7-7-7---7-7---7-----7-7-7-7---5-5-5---9-9---9---9-9-9-9---]
[--7-7-7---7-7---7-----5-5-5-5---3-3-3---7-7---7---7-7-7-7---]
[--5-5-5---5-5---5-------------------------------------------] x2

Verse:
[--------------------------------------------------------------------------]
[--------------------------------------------------------------------------]
[--------------------7-7-7-7-7-7-7-7---5-5-5-5-5-5-5-5---9-9-9-9-9-9-9-9---]
[--7-7-7-7-7-7-7-7---7-7-7-7-7-7-7-7---5-5-5-5-5-5-5-5---9-9-9-9-9-9-9-9---]
[--7-7-7-7-7-7-7-7---5-5-5-5-5-5-5-5---3-3-3-3-3-3-3-3---7-7-7-7-7-7-7-7---]
[--5-5-5-5-5-5-5-5---------------------------------------------------------] x4


Chorus:
[---------------------------------------------------------------------------]
[---------------------------------------------------------------------------]
[--------------------------------------5-5-5-5-5-5-5-5----------------------]
[--7-7-7-7-7-7-7-7---3-3-3-3-3-3-3-3---5-5-5-5-5-5-5-5---5-5-5-5-5-5-5-5----]
[--7-7-7-7-7-7-7-7---3-3-3-3-3-3-3-3---3-3-3-3-3-3-3-3---5-5-5-5-5-5-5-5----]
[--5-5-5-5-5-5-5-5---1-1-1-1-1-1-1-1---------------------3-3-3-3-3-3-3-3----] x4

Solo:
[------------------------------------------------------------]
[------------------------------------------------------------]
[------------------------------------------------------------]
[------------------------------------------------------------]
[--0-0-0---0-0---0---3-2-0-----------------------------------]
[------------------------------3---1-1-1---0-0---1-3---------] x4

Outro:
[--------------------------------------]   [-----------]
[--------------------------------------]   [-----------]
[--------------------5-5---------------]   [-----------]
[--7-7---3---3-3-3---5-5---5---5-5-5---]   [--7--------]
[--7-7---3---3-3-3---3-3---5---5-5-5---]   [--7--------]
[--5-5---1---1-1-1---------3---3-3-3---] x2[--5--------] Hold last note


Order:
Intro
Verse
Chorus
Intro
Verse
Chorus
Solo
Chorus
Chorus with different lyrics
Outro

Lyrics:
Verse:
The sun goes down.
They slip through the bloody cracks of the ground.
They disappear, never to be seen again.
The smoke billows in, it fills the room and chokes us all.
The floor drops from below, bringing us all to hell.

Chorus:
The world is gone never to return.
The devil’s kingdom will forever burn.
I hate this life of misery, I want it to end get away from me.

Verse:
The *** building traps us all.
We can’t leave, depression builds. We are gone.
We will never see each other again.
The world is crashing down crushing me, ripping me.
Life is at an end.
Life will not be known again.

Chorus w/ different lyrics:
Lay me down to rest once more.
The Grimm Reaper is at my door.
My soul is gone lost in the abyss. 
Wandering, stumbling, never seen again.
            
Submit corrections

comments powered by Disqus
↑ Back to top | Unsigned Tabs for Haze- Hell. Lyrics for acoustic guitar and electric guitar. Tablatures and chords are parodies/interpretations of the original songs. You may use it for private study, scholarship, research or language learning purposes only