>
 >
Halfmast - Dilluted

Halfmast - Dilluted Guitar Tabs

Unsigned - Halfmast - Dilluted chords, tabs, tablatures, lyrics

Guitar lessons | Add/correct | Request | Top 50 tabs Artists:  A B C D E F G H I J K L M N O P Q R S T U V W X Y Z 0-9

Halfmast - Dilluted Guitar Tabs – Unsigned

CD, Sheet music, Poster

Do you like Halfmast - Dilluted? Share with your friends now
Tabs
Halfmast is:
Rob Mellinger: Bass/ Vocals
Ricky Umbrecht: Drums
Sam Baris: Guitar


Play with heavy distortion
This song is metal, but were mainly a punk band.


Intro:
In the intro, hold the first note almost twice as long as the others, and have about a two second pause at every bar line
e   |---------------|---------------|---------------|    |---------------|
B   |---------------|---------------|---------------|    |---------------|
G   |---------------|---------------|---------------|    |---------------|
D   |-3-3-3-3-5-3-3-|-3-3-3-3-5-3-3-|-3-3-3-3-5-6-6-| E1 |-6-6-6-6-5-3-3-|
A   |-3-3-3-3-5-3-3-|-3-3-3-3-5-3-3-|-3-3-3-3-5-6-6-|    |-6-6-6-6-5-3-3-|
E   |-3-3-3-3-3-3-3-|-3-3-3-3-3-3-3-|-3-3-3-3-3-6-6-|    |-6-6-6-6-3-3-3-|
                                                         |               |
                                                    e    |---------------|
                                                    B    |---------------|
               The fisrt time, play with E1         G    |---------------|
                 On the second time, use E2         D E2 |-8-8-6-6-6-5---|
                                                    A    |-8-8-6-6-6-5---|
                                                    E    |-6-6-6-6-6-3---|

*= hold note twice as long

Riff I:
e   |-----------------------------------------|
B   |-*---------*---------*---------*---------|
G   |-----------------------------------------|
D   |-7-7-7-7-7-6-6-6-6-6-0-0-0-0-0-4-4-4-4-4-|
A   |-7-7-7-7-7-6-6-6-6-6-2-2-2-2-2-4-4-4-4-4-|
E   |-5-5-5-5-5-4-4-4-4-4-3-3-3-3-3-2-2-2-2-2-|

e   |----------------------------------------------|
B   |-*---------*---------*--------------*---------|
G   |---------------------11-11-11-11--------------|
D   |-7-7-7-7-7-9-9-9-9-9-11-11-11-11-11-9-9-9-9-9-|
A   |-7-7-7-7-7-9-9-9-9-9--9--9--9--9-11-9-9-9-9-9-|
E   |-5-5-5-5-5-7-7-7-7-7--------------9-7-7-7-7-7-|


Riff II:
e   |--------------------------------------------------------|
B   |-*---------*---------*---------*---------*--------------|
G   |-7-7-7-7-7-----------9-9-9-9-9--------------------------|
D   |-7-7-7-7-7-5-5-5-5-5-9-9-9-9-9-9-9-9-9-9-11-11-11-11-11-|
A   |-5-5-5-5-5-5-5-5-5-5-7-7-7-7-7-9-9-9-9-9-11-11-11-11-11-|
E   |-----------3-3-3-3-3-----------7-7-7-7-7--9--9--9--9--9-|

e   |------------------------------------|
B   |-*--------------*---------*---------|
G   |-11-11-11-11-11---------------------|
D   |-11-11-11-11-11-7-7-7-7-8-9-9-9-9-9-|
A   |--9--9--9--9--9-7-7-7-7-8-9-9-9-9-9-|
E   |----------------5-5-5-5-6-7-7-7-7-7-|


Outro:
e   |------------------------------------------------------------|
B   |------------------------------------------------------------|
G   |---------------------------------------------------------11-|
D   |-----7-------6-------0-------4-------7-------9--------11----|
A   |---7---7---6---6---2---2---4---4---7---7---9---9----9-------|
E   |-5-------4-------3-------2-------5-------7-------10---------|

The song has no lyrics, but after i play the last note, the vocalist (Rob) yells "F***!" (mxtabs cencored it, not me)


Order:
Intro   X1
Riff I  X2
Riff II X2
Intro   X1
Riff I  X2
Riff II X2
Outro   X1





Comments


Popular Unsigned tabs & chords
3 Quarters Dead - The Jungle Man Bass Tabs
Blueish Riff Bass Tabs
In Denial - Therefore I Stand Alone Bass Tabs
Splat - Caramel Bass Tabs
The Accidentals - Change Is Bad Bass Tabs
Anaim-I Wanna Go Tabs
B.W.W-Lazy Tabs
Disfunction-Crash Tabs
Finger Lickin Chicken-Mmm Mmm Good Tabs
Fondling Amber- Words Of Wisdom Tabs


Song lyrics



↑ Back to top | Tablatures and chords are parodies/interpretations of the original songs. You may use it for private study, scholarship, research or language learning purposes only
© 2014 AZChords.com Contact us | Privacy policy | DMCA | Add/correct tabs | Request tabs | Top 50 tabs