» » »

H8s - Alt Jeg Hader Tabs (ver.1)

Artists:  A B C D E F G H I J K L M N O P Q R S T U V W X Y Z # 

H8s - Alt Jeg Hader Tabs (ver.1)

Unsigned
Rating:
0/5 (0 votes)

Hard to play? Try these video lessons and learn fast.
                Alt Jeg hader 

Intro:
Chords:Hm,G|D,A|:

Chorus:
Power Chrods:H,G|D,A|x4

Verse:
E:7-7-7-7-7-7-5-6-7-7-7-7-7-7-5-6-7-7-7-7-7-7
A:-------------------------------------------
D:-------------------------------------------
G:-------------------------------------------
H:-------------------------------------------
E:-------------------------------------------
 PLay this and then:
Power Chords: |A,H|

Play all verse twice. 

Solo:

E:--------5-----------5-----------5-----------------:
A:2---5-4---4-2---5-4---4-2---5-4---4-2-4-5-7-5-4-5-:(2)
D:--4-----------4-----------4-----------------------:
G:--------------------------------------------------:
H:--------------------------------------------------:
E:--------------------------------------------------:

That is All, i hope you can use it...
            
Hard to play? Try these video lessons and learn fast. | Correct




comments powered by Disqus
↑ Back to top | Tablatures and chords are parodies/interpretations of the original songs. You may use it for private study, scholarship, research or language learning purposes only