» » »

Unsigned, Gthreec-Away Tabs (ver.1)

Artists:  A B C D E F G H I J K L M N O P Q R S T U V W X Y Z # 

Gthreec-Away Tabs (ver.1)

Unsigned Tabs
 Rating:
4/5 (4 votes)
Gthreec-Away lessons Tabs too difficult? Try these video lessons and learn fast
                Tuning:1/2 step down

Intro: clean tone 4x (finger pluck)
e|----------------------------------------------------------|
B|---7-----7-----7-----7-----7---5-----5-----7-----5-----5--|
G|-----6-----6-----6-----6---------6-----6-----6-----6------|
D|----------------------------------------------------------|
A|-----------------------------0-----0-----0-----0-----0----|
E|-7-----7-----7-----7-----7--------------------------------|

e|-------------------------------------------2h3------------|
B|---3-----3-----5-----3-----3---3-----3---------3----------|
G|-----0-----0-----0-----0---------2-----2---------2--------|
D|-----------------------------0-----0-----0-0--------------|
A|----------------------------------------------------------|
E|-3-----3-----3-----3-----3--------------------------------|

2nd part of intro:
e|---------------------------------|--------------------------------------|
B|---------------------------------|--------------------------------------|
G|-4-4-4---------2-2-2-------7-7-7-|-4-4-4---------2-2-2-------7-7-7-7----|
D|-4-4-4-----2h4-2-2-2-5-5-5-7-7-7-|-4-4-4-----2h4-2-2-2-5-5-5-7-7-7-7----|
A|-2-2-2-2h4-----0-0-0-5-5-5-5-5-5-|-2-2-2-2h4-----0-0-0-5-5-5-5-5-5-5-4--|
E|---------------------3-3-3-------|---------------------3-3-3------------|

Verse:
e|--------------------------------------|
B|--------------------------------------|
G|-4-4-4---------2-2-2-------7-7-7-7----|
D|-4-4-4-----2h4-2-2-2-5-5-5-7-7-7-7----|
A|-2-2-2-2h4-----0-0-0-5-5-5-5-5-5-5-4--|
E|---------------------3-3-3------------|

Chorus:
e|---------------------------------------------------------------------------|
B|---------------------------------------------------------------------------|
G|-----4-4-4-4-----4-4-4-4/7-7-------------4-4-4-4-----4-4-4-4/7-7-----------|
D|-4---4-4-4-4-4---4-4-4-4/7-7---5-5-5-4---4-4-4-4-4---4-4-4-4/7-7---7-7-7---|
A|-0h2-2-2-2-2-0h2-2-2-2-2/5-5-5-5-5-5-0h2-2-2-2-2-0h2-2-2-2-2/5-5-5-7-7-7---|
E|-------------------------------3-3-3-------------------------------5-5-5---|
       x x x       x x x                   x x x       x x x

Bridge:
e|----------------------------------|
B|----------------------------------|
G|-7--------------------------------|
D|-7---------5-----------7----------|
A|-5---------5-----------7----------|
E|-----------3-----------5----------|

--GthreeC--


| /  slide up
| \  slide down
| h  hammer-on
| p  pull-off
| ~  vibrato
| +  harmonic
| x  Mute note
            
Submit corrections

comments powered by Disqus
↑ Back to top | Unsigned Tabs for Gthreec-Away. Lyrics for acoustic guitar and electric guitar. Tablatures and chords are parodies/interpretations of the original songs. You may use it for private study, scholarship, research or language learning purposes only