» » »

Grudge Against Reality - Without Words Tabs (ver.1)

Artists:  A B C D E F G H I J K L M N O P Q R S T U V W X Y Z # 

Grudge Against Reality - Without Words Tabs (ver.1)

Unsigned
Rating:
0/5 (0 votes)

Hard to play? Try these video lessons and learn fast.
                Without Words

* =10th fret

Intro: Play four times
E|---------------------------------------------|
B|---------------------------------------------|
G|-5555555555-9999999999-2222222222------------|
D|-5555555555-9999999999-2222222222-3333333333-|
A|-3333333333-7777777777-0000000000-3333333333-|
E|----------------------------------1111111111-|

Verse: Play twice
E|---------------------------------------------|
B|---------------------------------------------|
G|-5xxxxxxxxx-9xxxxxxxxx-2xxxxxxxxx-*xxxxxxxxx-|
D|-5xxxxxxxxx-9xxxxxxxxx-2xxxxxxxxx-*xxxxxxxxx-|
A|-3xxxxxxxxx-7xxxxxxxxx-0xxxxxxxxx-8xxxxxxxxx-|
E|---------------------------------------------|

Chorus: Play twice
E|---------------------------------------------|
B|---------------------------------------------|
G|-5555555555-----------------------**********-|
D|-5555555555-5555555555-7777777777-**********-|
A|-3333333333-5555555555-7777777777-8888888888-|
E|------------3333333333-5555555555------------|

Intro: Play four times
E|---------------------------------------------|
B|---------------------------------------------|
G|-5555555555-9999999999-2222222222------------|
D|-5555555555-9999999999-2222222222-3333333333-|
A|-3333333333-7777777777-0000000000-3333333333-|
E|----------------------------------1111111111-|

Verse: Play twice
E|---------------------------------------------|
B|---------------------------------------------|
G|-5xxxxxxxxx-9xxxxxxxxx-2xxxxxxxxx-*xxxxxxxxx-|
D|-5xxxxxxxxx-9xxxxxxxxx-2xxxxxxxxx-*xxxxxxxxx-|
A|-3xxxxxxxxx-7xxxxxxxxx-0xxxxxxxxx-8xxxxxxxxx-|
E|---------------------------------------------|

Chorus: Play twice
E|---------------------------------------------|
B|---------------------------------------------|
G|-5555555555-----------------------**********-|
D|-5555555555-5555555555-7777777777-**********-|
A|-3333333333-5555555555-7777777777-8888888888-|
E|------------3333333333-5555555555------------|

Bridge: Play twice
E|---------------------------------------------------------------------|
B|---------------------------------------------------------------------|
G|---5---5---5---5----9---9---9---9----2---2---2---2-------------------|
D|-3---3---3---3----7---7---7---7----0---0---0---0------3---3---3---3--|
A|----------------------------------------------------1---1---1---1----|
E|---------------------------------------------------------------------|

Outro: Play three times
E|---------------------------------------------|
B|---------------------------------------------|
G|-5555555555-9999999999-2222222222------------|
D|-5555555555-9999999999-2222222222-3-33-55-55-|
A|-3333333333-7777777777-0000000000-3-33-55-55-|
E|----------------------------------1-11-33-33-|
            
Hard to play? Try these video lessons and learn fast. | Correct




comments powered by Disqus
↑ Back to top | Tablatures and chords are parodies/interpretations of the original songs. You may use it for private study, scholarship, research or language learning purposes only