>
 >
Grimreaper Warlords-Grrr Kings

Grimreaper Warlords-Grrr Kings Guitar Tabs

Unsigned - Grimreaper Warlords-Grrr Kings chords, tabs, tablatures, lyrics

Guitar lessons | Add/correct | Request | Top 50 tabs Artists:  A B C D E F G H I J K L M N O P Q R S T U V W X Y Z 0-9

Grimreaper Warlords-Grrr Kings Guitar Tabs – Unsigned

CD, Sheet music, Poster

Do you like Grimreaper Warlords-Grrr Kings? Share with your friends now
Tabs
PLAY WITH CAUTION! THIS IS A GRIMREAPER WARLORDS SONG!!!!!

intro
e:------------------------------------------------
B:------------------------------------------------
G:------------------------------------------------
D:222255554444222255554444222255554444222255554444
A:222255554444222255554444222255554444222255554444
E:000033332222000033332222000033332222000033332222
  ......................PM........................

.=pm (alternate between pm and open every srum)
e:------------------------------------------------
B:------------------------------------------------
G:------------------------------------------------
D:222255554444222255554444222255554444222255554444
A:222255554444222255554444222255554444222255554444
E:000033332222000033332222000033332222000033332222
  . . . . . . . . . . . . . . . . . . . . . . . . 

then:
e:------
B:------
G:------ let ring
D:2-----
A:2-----
E:0-----

double strum very fast
e:------------------------------------------------------------------------
B:------------------------------------------------------------------------
G:------------------------------------------------------------------------
D:------------------------------------------------------------------------
A:7-7-7-7-7-7-7-7-10-10-10-10-10-10-10-10-9-9-9-9-9-9-9-9-6-6-6-6-6-6-6-6-
E:------------------------------------------------------------------------

e:------------------------------------------------------------------------
B:------------------------------------------------------------------------
G:------------------------------------------------------------------------
D:------------------------------------------------------------------------
A:7-7-7-7-7-7-7-7-10-10-10-10-10-10-10-10-9-9-9-9-9-9-9-9-6-6-6-6-6-6-6-6-
E:0-0-0-0-0-0-0-0-7--7--7--7--7--7--7--7--7-7-7-7-7-7-7-7-7-7-7-7-7-7-7-7-

verse:
e:------------------
B:------------------
G:------------------play twice
D:------------------
A:77777778-77777777-
E:00000000-00000008-

chorus:
e:----------------------------------------
B:----------------------------------------
G:----------------------------------------
D:2222223-2222223-2222223/7777777766668888
A:2222223-2222223-2222223/7777777766668888
E:0000001-0000001-0000001/5555555544446666
                                      .PM.

verse:
e:------------------
B:------------------
G:------------------play twice
D:------------------
A:77777778-77777777-
E:00000000-00000008-

chorus:
e:----------------------------------------
B:----------------------------------------
G:----------------------------------------
D:2222223-2222223-2222223/7777777766668888
A:2222223-2222223-2222223/7777777766668888
E:0000001-0000001-0000001/5555555544446666
                                      .PM.

bridge:
very fast strumming
e:--------------------------------
B:--------------------------------
G:--------------------------------
D:--------------------------------
A:--------------------------------
E:00000000777788884444555511111111

e:-------------
B:-------------
G:-------------play eight times
D:2-2222-2-2222
A:2-2222-2-2222
E:0-0000-0-0000

double strum extremely fast
e:---------------------------------------------------------------
B:---------------------------------------------------------------
G:---------------------------------------------------------------
D:2-2-2-2-2-2-2-2-9-9-9-9-101010106-6-6-6-7-7-7-7-3-3-3-3-3-3-3-3
A:2-2-2-2-2-2-2-2-9-9-9-9-101010106-6-6-6-7-7-7-7-3-3-3-3-3-3-3-3
E:0-0-0-0-0-0-0-0-7-7-7-7-8-8-8-8-4-4-4-4-5-5-5-5-1-1-1-1-1-1-1-1

play softly
e:---------------------------
B:---------------------------
G:---------------------------play twice
D:2----------(2)-----(2)-----
A:2----------(2)-----(2)-----
E:0-let ring-0000000011111111

e:----------------
B:----------------
G:----------------
D:2222222233333333
A:2222222233333333
E:0000000011111111
  ......PM........

double strum extremely fast
e:---------------------------------------------------------------
B:---------------------------------------------------------------
G:---------------------------------------------------------------
D:2-2-2-2-2-2-2-2-9-9-9-9-101010106-6-6-6-7-7-7-7-3-3-3-3-3-3-3-3
A:2-2-2-2-2-2-2-2-9-9-9-9-101010106-6-6-6-7-7-7-7-3-3-3-3-3-3-3-3
E:0-0-0-0-0-0-0-0-7-7-7-7-8-8-8-8-4-4-4-4-5-5-5-5-1-1-1-1-1-1-1-1
  DIIIIIIIIIIIIIIIIIIIIIIIEEEEEEEEEEEEEEEEEeeeeeeeeeeeeeeeeeeeee!

end on:
e:------
B:------
G:------ let ring
D:2-----
A:2-----
E:0-----

The Grimreaper Warlords are:
Death:growls/lead guitar
Anger:screams/rythm guitar
Doom:gloom/bass
Evil:screaching/extreme drums!!
(this song is soooo extreme that you might blow up if you play it and when I wrote it I head butted my dog cos' I was sooo pumped!)





Comments


Popular Unsigned tabs & chords
Jack In The Green-Christmas Is Cancelled Bass Tabs
Yuk Foo - Nameless Bass Tabs
A Kicking Guitar Riff Tabs
Bliss- I Dont Know Tabs
Centerpiece - The Greatest Nightmare Tabs
Doubleopunk - Lost Authority Tabs
Fds - Why Tabs
Headed For Ternity - Simple As Nuttin Tabs
Height Of Redemption-Untitled Tabs
Indesernable - Tilted Bench Tabs


Song lyrics



↑ Back to top | Tablatures and chords are parodies/interpretations of the original songs. You may use it for private study, scholarship, research or language learning purposes only
© 2014 AZChords.com Contact us | Privacy policy | DMCA | Add/correct tabs | Request tabs | Top 50 tabs