» » »

Grillin By My Lonesome Bass tabs (ver.1)

Artists:  A B C D E F G H I J K L M N O P Q R S T U V W X Y Z # 

Grillin By My Lonesome Bass tabs (ver.1)

Unsigned
Rating:
0/5 (0 votes)

Hard to play? Try these video lessons and learn fast.
                “grillin by my lonesome”



			intro
g]---------------------------------------------------------------------
d]--------------------------------------0-0-7-9-7-0---0-0-7-9-7-0
a]—0-0-7-9-7-0----0-0-7-9-7-0----------------------------------
e]---------------------------------------------------------------------

			main part
g]-------------------------------------------------------------------------
d]------------7-9-0----------7-9-0----------7-9-7-0----------7-9-7-0
a]—0-0-9-----------0-09-----------0-0-9------------0-0-9------------
E]--------------------------------------------------------------------------

				solo
G]----------------------------------------------------------------------------------
D]---------------------------------------0-0-8-10-8-0-----0-0-8-10-8-0-10/14
A]----------------------------------------------------------------------------------
E]---0-8-10-0------0-0-8-10-0--------------------------------------------------


I made up this bad boy
            
Hard to play? Try these video lessons and learn fast. | Correct




comments powered by Disqus
↑ Back to top | Tablatures and chords are parodies/interpretations of the original songs. You may use it for private study, scholarship, research or language learning purposes only