» » »

Gridlock-Cymru Am Byth Tabs (ver.1)

Artists:  A B C D E F G H I J K L M N O P Q R S T U V W X Y Z # 

Gridlock-Cymru Am Byth Tabs (ver.1)

Unsigned
Rating:
0/5 (0 votes)

Hard to play? Try these video lessons and learn fast.
                intro

e----------------------------------------
-----------------------------------------
-222--222--222---------------------------
-222--222--222---------------------------
-003^-003^-003^----x5---------------------
E-----------------------------------------

verse
e-----------------------------------------
------------------------------------------
222--222--222--7-5----repeat-------------
222--222--222--7-5----x10----------------
003^-003^-003^-5-3-----------------------
E-----------------------------------------

solo 1
e-----------------------------------------------------------------------------
 -------------3302-220---1010109/down-----------------------------------------
 --------442202202-2207799 9 9 9/9997007--------------------------------------x2
 --------44220---2-220779--------999700752---222------------------------------
 ------202200---------557--------777500752---222------------------------------
E-003^4--------------------------------530^^^003^-----------------------------


solo 2 (The WKD 1!!!)
e----17-----------------------------------------------------12----------------
-------20-17--------------------------------------------------15-12-----------
------------19-17--------------17^---------------------------------14-12------
--19~~-----------19-17-19-19-17---19~~\-7-5----------7-5~/14------------14-12-
-------------------------------------------7-5--------7-----------------------
E--------------------------------------5------8-5-8-5-------------------------

e--------------------10----------------------------------17-------------------
-----------------------13-10-------------------------------20-17--------------
----------12^---------------12-10--------------10^--------------19-17---------
--14-14-12---14~~\12-------------12-10-12-12-10---12~~/19------------19-17-19-
E-----------------------------------------------------------------------------

e-----------------------------------------------
----------------------------------------
-------17^------------------------------
-19-17---19~~~-------------19~~~~------- x2
--------------------17h19~~-------------
E-------------17h20-----------------------------

Intro  x3
solo 1 x2
Intro  x2
solo 1
solo 2 x2
Intro
 
Thanx Eilir Edwards (_,)(_,)
            
Hard to play? Try these video lessons and learn fast. | Correct




comments powered by Disqus
↑ Back to top | Tablatures and chords are parodies/interpretations of the original songs. You may use it for private study, scholarship, research or language learning purposes only