» » »

Unsigned, Great White Something - The Warning Tabs (ver.1)

Artists:  A B C D E F G H I J K L M N O P Q R S T U V W X Y Z # 

Great White Something - The Warning Tabs (ver.1)

Unsigned Tabs
 Rating:
4/5 (4 votes)
Great White Something - The Warning lessons Tabs too difficult? Try these video lessons and learn fast
                Key: P-pause /-slide H-hammer


Part A Intro/Verse


E:|-------------------------------------------------|  
B:|-------------------------------------------------|		
G:|-------------------------------------------------|
D:|-------------------------------------------------| X 2 This 
A:|-----------------3p-----------------3----------|
E:|---0---3---5-------0---3---5-------5---3---|
		

Part B Chorus (Play this Immediatly after the Intro/Verse)
 Hammer and Hammer off throught the chorus everytime.

E:|-------------------------------------------|		
B:|-------------------------------------------|			
G:|-------------------------------------------|
D:|----5--5--5----7--7--7----3--3--3----|X 2 Distortion 
A:|----0--0--0----0--0--0----0--0--0----|
E:|----3--3--3----5--5--5----1--1--1----|


Immediatly After Part B/horus
E:|-------------------------------------------------|   	 
B:|-------------------------------------------------|		
G:|-------------------------------------------------|
D:|-------------------------------------------------| X 2 Distortion
A:|-----------------3p-----------------3----------|
E:|---0---3---5-------0---3---5-------5---3---|


Part C Rythem Part
E:|--------------------------------------|
B:|--------------------------------------|
G:|--------------------------------------|
D:|---2/5---2/7---2/9-9-9-9-9-9--|X2 Low Distortion
A:|---2/5---2/7---2/9-9-9-9-9-9--|
E:|------3-----5------7-7-7-7-7-7--|


Part D Play Fast  (1)       Part D Ending (2)
E:|-------------------------------|-------------------------------|
B:|-------------------------------|-------------------------------|
G:|-------------------------------|-------------------------------|
D:|-------------------------------|-------------------------------| Distorted
A:|----------------3-------------|X3----------------------------|
E:|--0---3---5------------------|----------5-----3------------|


E:|-------------------------------------------|		
B:|-------------------------------------------|		
G:|-------------------------------------------|
D:|----5--5--5----7--7--7----3--3--3----|X 2 Distortion
A:|----0--0--0----0--0--0----0--0--0----|
E:|----3--3--3----5--5--5----1--1--1----|


Solo
E:|----------------------------------------------------------------------------|
B:|----------------------------------------------------------------------------|
G:|----------------------------------------------------------------------------|
D:|---------------------------0--3--5/7--5-------------------------------------| 
A:|----0--3--5--5--3--0---------------------5--3--0--0--3--5--3--2--0----------|
E:|----------------------------------------------------------------------------|

Ending 
E:|-------------------------------------------|		
B:|-------------------------------------------
G:|-------------------------------------------|
D:|----5--5--5----7--7--7----3--3--3----|X 2 Fade out
A:|----0--0--0----0--0--0----0--0--0----|
E:|----3--3--3----5--5--5----1--1--1----|






					
			




Song made up by the Band member:Ian Anderjack
            
Submit corrections

comments powered by Disqus
↑ Back to top | Unsigned Tabs for Great White Something - The Warning. Lyrics for acoustic guitar and electric guitar. Tablatures and chords are parodies/interpretations of the original songs. You may use it for private study, scholarship, research or language learning purposes only