» » »

Unsigned, Gravel Road - Imaginary Seagul Shadow Tabs (ver.1)

Artists:  A B C D E F G H I J K L M N O P Q R S T U V W X Y Z # 

Gravel Road - Imaginary Seagul Shadow Tabs (ver.1)

Unsigned Tabs
Rating:
0/5 (0 votes)
Gravel Road - Imaginary Seagul Shadow lessons Tabs too difficult? Try these video lessons and learn fast
                This song is the artists own work and is copy writed by Gravel Road
Gravel Road has been around for a few years.

	H=hammer on p=pull off x= palm mute /=slide


      Song starts in heavy feedback then it gos like this
E|------------------------------------------------------------------------------------------|
A|------------------------------------------------------------------------------------------|
D|-------------5-----7-----9-----------5-----7-----9----------5-----7-----9—7----------|
G|----------3-----5-----7-----------3-----5-----7----------3-----5-----7-----------------|
B|------------------------------------------------------------------------------------------|
E|------------------------------------------------------------------------------------------|
                          	
                          Play 2 bars, than sing 16 bars
E|-------------------------------------------------------------------------|
A|-------------------------------------------------------------------------|
D|-------------------------------------------------------------------------|
G|---3---3---3----------5---5---5----------7---7-----5------------------|		
B|---3---3---1----------5---5---3----------7---7-----5------------------|
E|---1---1---1h3p1-----3---3---3h5p3-----5---5-----3---5---3---O----|
		 
 
E|-------------------------------------------------------------------------|
A|-------------------------------------------------------------------------|
D|-------------------------------------------------------------------------| Palm mute all
G|---3-3-3-3-3-3-3-3-5-5-5-5-5-5-5-5----------------------------------|
B|---1-1-1-1-3-3-3-3-5-5-5-5-3-3-3-3----------------------------------|
E|-------------------------------------------------------------------------|
       
     
    x x    x x x  x  x x   x x x   x            play 2 bars then sing 8 bars
E|-------------------------------------------------------------------------|
A|-------------------------------------------------------------------------|
D|-------------------------------------------------------------------------|
G|---3-3-3-3-3-3-3-3-5-5-5-5-5-5-5-5----------------------------------|
B|---1-1-1-1-3-3-3-3-5-5-5-5-3-3-3-3----------------------------------|
E|-------------------------------------------------------------------------|

			Play 2 bars then sing 10 bars
E|-------------------------------------------------------------------------|
A|-------------------------------------------------------------------------|
D|-------------------------------------------------------------------------|
G|---3---3---3----------5---5---5----------7---7-----5------------------|		
B|---3---3---1----------5---5---3----------7---7-----5------------------|
E|---1---1---1h3p1-----3---3---3h5p3-----5---5-----3---5---3---O----|

			The solo goes like this really fast
E|-------------------------------------------------------------------------|
A|-------------------------------------------------------------------------|
D|-------------------------------------------------------------------------|
G|-------------------------------------------------------------------------|4x
B|---Oh3h5pO-Oh5h7pO-Oh7h9pO-Oh5h7pO--------------------------|
E|-------------------------------------------------------------------------|

E|-------------------------------------------------------------------------|
A|-------------------------------------------------------------------------|
D|-------------------------------------------------------------------------|
G|---5------------5/2-------------2------------5------------5/9----------|
B|---5------------5/2-------------2------------5------------5/9----------|
E|---3------------3/O------------O------------3------------3/7----------|


Lyircs

(CHROUS)
YOU, YOU ONLY WANT ME,
BECAUSE YOU,
(VERSE 1)
YOU ARE SO HORNEYTHERE IS NOTHING TO HIDE,
NOW I KNOW BETTER CAUSE I AINT SO BLIND BECAUSE,
(CHOROUS)
YOU, YOU ONLY WANT ME,
BECAUSE YOU,
(VERSE 2)
YOU ONLY WANTED ME CAUSE YOU WANT TO SCORE,
NOW I KNOW BETTER, YOUR SUCH A WHORE CAUSE,
(VERSE 3)
YOU, BUT WHY ME?
YEAH, YOU,
BUT WHY ME?
(WHISPER)BUT WHY ME,
BUT WHY MEEEEE?
(VERSE 4)
AND I SIGH, AND I CRY, AND I ASK MY SELF WHY,
AND I GO, AND I KNOW, THAT YOUR SUCH A HO,
(CHROUS)
YOU, YOU ONLY WANT ME,
BECAUSE YOU,
(VERSE 5)
LOOK IN YOUR HART THERE IS NOTHIN INSIDE,
DO YOU REALLY THINK THAT IM THAT BLIND, YEAH,
YOU,
BUT WHY ME?
YEAH WHY ME?
YEAH WHY ME?
YEAH WHY MEEEE?
(GUITAR SOLO)
            

comments powered by Disqus
↑ Back to top | Unsigned Tabs for Gravel Road - Imaginary Seagul Shadow. Lyrics for acoustic guitar and electric guitar. Tablatures and chords are parodies/interpretations of the original songs. You may use it for private study, scholarship, research or language learning purposes only