» » »

Unsigned, Golden Pistol - How It Was Tabs (ver.1)

Artists:  A B C D E F G H I J K L M N O P Q R S T U V W X Y Z # 

Golden Pistol - How It Was Tabs (ver.1)

Unsigned Tabs
 Rating:
4/5 (4 votes)
Golden Pistol - How It Was lessons Tabs too difficult? Try these video lessons and learn fast
1
                Intro/Verse:

E--|---------------|---------------|---------------|----------------|
B--|---------------|---------------|---------------|----------------|
G--|--0-------0----|--0-------0----|--0-------0----|----------------|                   D--|----2---2---2--|----2---2---2--|----2---2---2--|--3-2-3-2-3-0---|  x2
A--|3-----3--------|2-----2--------|0-----0--------|----------------|
E--|---------------|---------------|---------------|1---------------|

Pre-Chorus
E--|---------------|---------------|---------------|----------------|
B--|---------------|---------------|---------------|----------------|
G--|---------------|---------------|---------------|----------------|                   D--|---------------|---------------|---------------|----------------|  x2
A--|3-3-3-3-3-3-3-0|2-2-2-2-2-2-2-0|0-0-0-0-0-0-0--|----------------|
E--|---------------|---------------|--------------0|1-1-1-1-0-0-----|

Chorus
E--|---------------|---------------|---------------|----------------|
B--|---------------|---------------|---------------|----------------|
G--|---------------|---------------|---------------|----------------|                   D--|---------------|---------------|---------------|----------------|  x2
A--|3-3-3-3-3-3-3-0|---------------|---------------|----------------|
E--|---------------|3-3-3-3-3-3-3-0|5-5-5-5-5-5-5-0|1-1-1-1-0-0-----|


Repeat intro/verse x2
Repeat pre-chorus x2
Repeat chorus x2

Bridge
E--|0-0-0----------|0-0-0----------|0-0-0-0--------|
B--|0-0-0----------|0-0-0----------|0-0-0-0--------|
G--|0-0-0----------|0-0-0----------|0-0-0-0--------|                                    D--|0-0-0----------|0-0-0----------|0-0-0-0--------|  x4 ( strum faster each time )
A--|3-3-3----------|2-2-2----------|0-0-0-0--------|
E--|0-0-0----------|0-0-0----------|0-0-0-0--------|

Repeat chorus x1 (palm mute)
Repeat chorus x1 ( pick lightly)
Repeat chorus x1 ( pick normally)
Repeat chorus x3 (hammer)
	
Repeat intro/ verse x2 (pick lightly, let final note ring)
            
Submit corrections

comments powered by Disqus
↑ Back to top | Unsigned Tabs for Golden Pistol - How It Was. Lyrics for acoustic guitar and electric guitar. 1 Tablatures and chords are parodies/interpretations of the original songs. You may use it for private study, scholarship, research or language learning purposes only