» » »

Global Disturbance - Alone Tonight Bass tabs (ver.1)

Artists:  A B C D E F G H I J K L M N O P Q R S T U V W X Y Z # 

Global Disturbance - Alone Tonight Bass tabs (ver.1)

Unsigned
Rating:
0/5 (0 votes)

Hard to play? Try these video lessons and learn fast.
                Band-Global Disturbance 
Tunning-Normal(G,D,A,E) 
Intro: 
G|----------------| 
D|------7------9-| 
A|--7-5---9-7---|
E|-5-----7--------|  

Verse:  
G|----------------|------------------------| Play this 2x after you've 
D|------7------9-|------------------------| played the first part 4x 
A|--7-5---9-7---|-----7-----------------| 
E|-5-----7--------|-5-----7-7777777--|

Chorus: 
G|----------------------------------------------------| 
D|----------------------------------------------------| 
A|-------------3-33-333-5-55-555-3-33-333-| 
E|-3-33-333----------------------------------------|

Bridge: 
G|----------------------------------------------------------------------------------------------------| 
D|----------------------------------------------------------------------------------------------------| 
A|----------------------------------------------------------------------------------------------------| 
E|-10---12---14---10---12---14---10---12---14-(14)(14)(14)(14)(14)(14)(14)(14)-|

Order: 
Inro-1x 
Verse-4x 
Chorus-4x 
Verse:4x
Chorus-8x 
Bridge-1x 
Chorus-4x 
Check us out at globaldisturbance.tripod.com
            
Hard to play? Try these video lessons and learn fast. | Correct




comments powered by Disqus
↑ Back to top | Tablatures and chords are parodies/interpretations of the original songs. You may use it for private study, scholarship, research or language learning purposes only