» » »

Funk Bass tabs (ver.1)

Artists:  A B C D E F G H I J K L M N O P Q R S T U V W X Y Z # 

Funk Bass tabs (ver.1)

Unsigned
Rating:
0/5 (0 votes)

Tabs too difficult? Try these video lessons and learn fast.
                (Riff)
this is a cool riff and its easy to play but you have to do it fast then it sounds good, B E A D G tuning 
T-tap P-pop

   T    T   T   T   T   T
G---------------------------
D---------------------------
A--5h7---------5h7----------
E-------00-5h7-----00-5h7---
B---------------------------

   T     T   P  T     T   P
G-----------5h7----------5h7
D-------7h9----------7h9----
A--5h7----------5h7---------
E---------------------------
B---------------------------

   T    T  T    T   T  T
G----------------------------
D----------------------------
A--5h7---------5h7-----------
E-------00-5h7-----00-5h7----
B---------------------------5 - let ring
            
Tabs too difficult? Try these video lessons and learn fast.




comments powered by Disqus
↑ Back to top | Tablatures and chords are parodies/interpretations of the original songs. You may use it for private study, scholarship, research or language learning purposes only