» » »

Unsigned, Funkplant - O Bass tabs (ver.1)

Artists:  A B C D E F G H I J K L M N O P Q R S T U V W X Y Z # 

Funkplant - O Bass tabs (ver.1)

Unsigned Tabs
 Rating:
4/5 (4 votes)
Funkplant - O lessons Tabs too difficult? Try these video lessons and learn fast
                T = Slap
P = Pop
S = Slide

    TT P T PP T P T T  S   S   TT P T PP T P T TT P T PP T P T
G--------------------------------------7---77----7-------9----99---9---------
D-----9---99----9------5/7--------------------------77----7-----7----7------
A----------------------------7/5--55----5-----5---5---------------------------
E--77---7-----7---7/55--------------------------------------------------------

    TT P T PP T P    S   TT P T PP T P     S   TT P T PP T P      S   TT P T PP T P   S       S
G--------------------8/9/8-------------------6/76---------------------4/5/4-------------------1/6—6/12-
D-----9---99----9------------7---77----7-------------5---55----5------------3--- 33----3---------------
A--------------------------------------------------------------------------------------------------------------
E--77----7-----7----------55----5-----5----------33----3-----3-----------11----1-----1-----------------
            
Submit corrections

comments powered by Disqus
↑ Back to top | Unsigned Bass for Funkplant - O. Lyrics for acoustic guitar and electric guitar. Tablatures and chords are parodies/interpretations of the original songs. You may use it for private study, scholarship, research or language learning purposes only