» » »

Unsigned, Fuddle - Ryan Tabs (ver.1)

Artists:  A B C D E F G H I J K L M N O P Q R S T U V W X Y Z # 

Fuddle - Ryan Tabs (ver.1)

Unsigned Tabs
 Rating:
4/5 (4 votes)
Fuddle - Ryan lessons Tabs too difficult? Try these video lessons and learn fast
1
                
Chorus-H/dist
E-----------------------------------------------------------------
B-----------------------------------------------------------------
G-----------------------------------------------------------------
D-9--9-9----------6--6-6----------9--9-9----------6--6-6----------
A-7--7-7--9--9-9--4--4-4--7--7-7--7--7-7--9--9-9--4--4-4--7--7-7--
E---------7--7-7----------5--5-5----------7--7-7----------5--5-5--

E-----------------------------------------------------------------
B-----------------------------------------------------------------
G-----------------------------------------------------------------
D-9---9-9-----------6---6-6---------------------------------------
A-7---7-7--9---9-9--4---4-4--7---7-7--5--5--5--5--7-7-7-7-9-9-9-9-
E----------7---7-7-----------5---5-5--3--3--3--3--5-5-5-5-7-7-7-7-

E-----------------------------------------------------------------
B-----------------------------------------------------------------
G-----------------------------------------------------------------
D-9--9-9----------6--6-6----------9--9-9----------6--6-6----------
A-7--7-7--9--9-9--4--4-4--7--7-7--7--7-7--9--9-9--4--4-4--7--7-7--
E---------7--7-7----------5--5-5----------7--7-7----------5--5-5--

E-----------------------------------------------------------------
B-----------------------------------------------------------------
G-----------------------------------------------------------------
D-9---9-9-----------6---6-6---------------------------------------
A-7---7-7--9---9-9--4---4-4--7---7-7--5--5--5--5--7-7-7-7-9-9-9-9-
E----------7---7-7-----------5---5-5--3--3--3--3--5-5-5-5-7-7-7-7-

Verse-H/dist(palm muted)
E-----------------------------------------------------------------
B-----------------------------------------------------------------
G-9-9-9-9-9-9-9-9-----------------6-6-6-6-6-6-6-6-----------------
D-9-9-9-9-9-9-9-9-9-9-9-9-9-9-9-9-6-6-6-6-6-6-6-6-7-7-7-7-7-7-7-7-
A-7-7-7-7-7-7-7-7-9-9-9-9-9-9-9-9-4-4-4-4-4-4-4-4-7-7-7-7-7-7-7-7-
E-----------------7-7-7-7-7-7-7-7-----------------5-5-5-5-5-5-5-5-

E-----------------------------------------------------------------
B-----------------------------------------------------------------
G-9-9-9-9-9-9-9-9-----------------6-6-6-6-6-6-6-6-----------------
D-9-9-9-9-9-9-9-9-9-9-9-9-9-9-9-9-6-6-6-6-6-6-6-6-7-7-7-7-7-7-7-7-
A-7-7-7-7-7-7-7-7-9-9-9-9-9-9-9-9-4-4-4-4-4-4-4-4-7-7-7-7-7-7-7-7-
E-----------------7-7-7-7-7-7-7-7-----------------5-5-5-5-5-5-5-5-

E-----------------------------------------------------------------
B-----------------------------------------------------------------
G-9-9-9-9-9-9-9-9-----------------6-6-6-6-6-6-6-6-----------------
D-9-9-9-9-9-9-9-9-9-9-9-9-9-9-9-9-6-6-6-6-6-6-6-6-7-7-7-7-7-7-7-7-
A-7-7-7-7-7-7-7-7-9-9-9-9-9-9-9-9-4-4-4-4-4-4-4-4-7-7-7-7-7-7-7-7-
E-----------------7-7-7-7-7-7-7-7-----------------5-5-5-5-5-5-5-5-

E-----------------------------------------------------------------
B-----------------------------------------------------------------
G-9-9-9-9-9-9-9-9-----------------6-6-6-6-6-6-6-6-----------------
D-9-9-9-9-9-9-9-9-9-9-9-9-9-9-9-9-6-6-6-6-6-6-6-6-7-7-7-7-7-7-7-7-
A-7-7-7-7-7-7-7-7-9-9-9-9-9-9-9-9-4-4-4-4-4-4-4-4-7-7-7-7-7-7-7-7-
E-----------------7-7-7-7-7-7-7-7-----------------5-5-5-5-5-5-5-5-

E-----------------------------------------------------------------
B-----------------------------------------------------------------
G-9-9-9-9-9-9-9-9-----------------6-6-6-6-6-6-6-6-----------------
D-9-9-9-9-9-9-9-9-9-9-9-9-9-9-9-9-6-6-6-6-6-6-6-6-7-7-7-7-7-7-7-7-
A-7-7-7-7-7-7-7-7-9-9-9-9-9-9-9-9-4-4-4-4-4-4-4-4-7-7-7-7-7-7-7-7-
E-----------------7-7-7-7-7-7-7-7-----------------5-5-5-5-5-5-5-5-

E-----------------------------------------------------------------
B-----------------------------------------------------------------
G-9-9-9-9-9-9-9-9-----------------6-6-6-6-6-6-6-6-----------------
D-9-9-9-9-9-9-9-9-9-9-9-9-9-9-9-9-6-6-6-6-6-6-6-6-7-7-7-7-7-7-7-7-
A-7-7-7-7-7-7-7-7-9-9-9-9-9-9-9-9-4-4-4-4-4-4-4-4-7-7-7-7-7-7-7-7-
E-----------------7-7-7-7-7-7-7-7-----------------5-5-5-5-5-5-5-5-

E-----------------------------------------------------------------
B-----------------------------------------------------------------
G-----------------------------------------------------------------
D-----6^7^6-----------6^7^6-----------6^7^6-----------------------
A-7----------7---------------7---------------7--------4---5---6---
E-----------------7---------------9---------------5---------------

E-----------------------------------------------------------------
B-----------------------------------------------------------------
G-----------------------------------------------------------------
D-----6^7^6-----------6^7^6-----------6^7^6-----------------------
A-7----------7---------------7---------------7--------4---5---6---
E-----------------7---------------9---------------5---------------

E-----------------------------------------------------------------
B-----------------------------------------------------------------
G-----------------------------------------------------------------
D-----6^7^6-----------6^7^6-----------6^7^6-----------------------
A-7----------7---------------7---------------7--------4---5---6---
E-----------------7---------------9---------------5---------------

E-----------------------------------------------------------------
B-----------------------------------------------------------------
G-----------------------------------------------------------------
D-----6^7^6-----------6^7^6-----------6^7^6-----------------------
A-7----------7---------------7---------------7--------4---5---6---
E-----------------7---------------9---------------5---------------

Chorus-H/dist
E-----------------------------------------------------------------
B-----------------------------------------------------------------
G-----------------------------------------------------------------
D-9--9-9----------6--6-6----------9--9-9----------6--6-6----------
A-7--7-7--9--9-9--4--4-4--7--7-7--7--7-7--9--9-9--4--4-4--7--7-7--
E---------7--7-7----------5--5-5----------7--7-7----------5--5-5--

E-----------------------------------------------------------------
B-----------------------------------------------------------------
G-----------------------------------------------------------------
D-9---9-9-----------6---6-6---------------------------------------
A-7---7-7--9---9-9--4---4-4--7---7-7--5--5--5--5--7-7-7-7-9-9-9-9-
E----------7---7-7-----------5---5-5--3--3--3--3--5-5-5-5-7-7-7-7-

E-----------------------------------------------------------------
B-----------------------------------------------------------------
G-----------------------------------------------------------------
D-9--9-9----------6--6-6----------9--9-9----------6--6-6----------
A-7--7-7--9--9-9--4--4-4--7--7-7--7--7-7--9--9-9--4--4-4--7--7-7--
E---------7--7-7----------5--5-5----------7--7-7----------5--5-5--

E-----------------------------------------------------------------
B-----------------------------------------------------------------
G-----------------------------------------------------------------
D-9---9-9-----------6---6-6---------------------------------------
A-7---7-7--9---9-9--4---4-4--7---7-7--5--5--5--5--7-7-7-7-9-9-9-9-
E----------7---7-7-----------5---5-5--3--3--3--3--5-5-5-5-7-7-7-7-

Verse-H/dist(palm muted)
E-----------------------------------------------------------------
B-----------------------------------------------------------------
G-9-9-9-9-9-9-9-9-----------------6-6-6-6-6-6-6-6-----------------
D-9-9-9-9-9-9-9-9-9-9-9-9-9-9-9-9-6-6-6-6-6-6-6-6-7-7-7-7-7-7-7-7-
A-7-7-7-7-7-7-7-7-9-9-9-9-9-9-9-9-4-4-4-4-4-4-4-4-7-7-7-7-7-7-7-7-
E-----------------7-7-7-7-7-7-7-7-----------------5-5-5-5-5-5-5-5-

E-----------------------------------------------------------------
B-----------------------------------------------------------------
G-9-9-9-9-9-9-9-9-----------------6-6-6-6-6-6-6-6-----------------
D-9-9-9-9-9-9-9-9-9-9-9-9-9-9-9-9-6-6-6-6-6-6-6-6-7-7-7-7-7-7-7-7-
A-7-7-7-7-7-7-7-7-9-9-9-9-9-9-9-9-4-4-4-4-4-4-4-4-7-7-7-7-7-7-7-7-
E-----------------7-7-7-7-7-7-7-7-----------------5-5-5-5-5-5-5-5-

E-----------------------------------------------------------------
B-----------------------------------------------------------------
G-9-9-9-9-9-9-9-9-----------------6-6-6-6-6-6-6-6-----------------
D-9-9-9-9-9-9-9-9-9-9-9-9-9-9-9-9-6-6-6-6-6-6-6-6-7-7-7-7-7-7-7-7-
A-7-7-7-7-7-7-7-7-9-9-9-9-9-9-9-9-4-4-4-4-4-4-4-4-7-7-7-7-7-7-7-7-
E-----------------7-7-7-7-7-7-7-7-----------------5-5-5-5-5-5-5-5-

E-----------------------------------------------------------------
B-----------------------------------------------------------------
G-9-9-9-9-9-9-9-9-----------------6-6-6-6-6-6-6-6-----------------
D-9-9-9-9-9-9-9-9-9-9-9-9-9-9-9-9-6-6-6-6-6-6-6-6-7-7-7-7-7-7-7-7-
A-7-7-7-7-7-7-7-7-9-9-9-9-9-9-9-9-4-4-4-4-4-4-4-4-7-7-7-7-7-7-7-7-
E-----------------7-7-7-7-7-7-7-7-----------------5-5-5-5-5-5-5-5-

E-----------------------------------------------------------------
B-----------------------------------------------------------------
G-9-9-9-9-9-9-9-9-----------------6-6-6-6-6-6-6-6-----------------
D-9-9-9-9-9-9-9-9-9-9-9-9-9-9-9-9-6-6-6-6-6-6-6-6-7-7-7-7-7-7-7-7-
A-7-7-7-7-7-7-7-7-9-9-9-9-9-9-9-9-4-4-4-4-4-4-4-4-7-7-7-7-7-7-7-7-
E-----------------7-7-7-7-7-7-7-7-----------------5-5-5-5-5-5-5-5-

E-----------------------------------------------------------------
B-----------------------------------------------------------------
G-9-9-9-9-9-9-9-9-----------------6-6-6-6-6-6-6-6-----------------
D-9-9-9-9-9-9-9-9-9-9-9-9-9-9-9-9-6-6-6-6-6-6-6-6-7-7-7-7-7-7-7-7-
A-7-7-7-7-7-7-7-7-9-9-9-9-9-9-9-9-4-4-4-4-4-4-4-4-7-7-7-7-7-7-7-7-
E-----------------7-7-7-7-7-7-7-7-----------------5-5-5-5-5-5-5-5-

E-----------------------------------------------------------------
B-----------------------------------------------------------------
G-----------------------------------------------------------------
D-----6^7^6-----------6^7^6-----------6^7^6-----------------------
A-7----------7---------------7---------------7--------4---5---6---
E-----------------7---------------9---------------5---------------

E-----------------------------------------------------------------
B-----------------------------------------------------------------
G-----------------------------------------------------------------
D-----6^7^6-----------6^7^6-----------6^7^6-----------------------
A-7----------7---------------7---------------7--------4---5---6---
E-----------------7---------------9---------------5---------------

E-----------------------------------------------------------------
B-----------------------------------------------------------------
G-----------------------------------------------------------------
D-----6^7^6-----------6^7^6-----------6^7^6-----------------------
A-7----------7---------------7---------------7--------4---5---6---
E-----------------7---------------9---------------5---------------

E-----------------------------------------------------------------
B-----------------------------------------------------------------
G-----------------------------------------------------------------
D-----6^7^6-----------6^7^6-----------6^7^6-----------------------
A-7----------7---------------7---------------7--------4---5---6---
E-----------------7---------------9---------------5---------------

Chorus-H/dist
E-----------------------------------------------------------------
B-----------------------------------------------------------------
G-----------------------------------------------------------------
D-9--9-9----------6--6-6----------9--9-9----------6--6-6----------
A-7--7-7--9--9-9--4--4-4--7--7-7--7--7-7--9--9-9--4--4-4--7--7-7--
E---------7--7-7----------5--5-5----------7--7-7----------5--5-5--

E-----------------------------------------------------------------
B-----------------------------------------------------------------
G-----------------------------------------------------------------
D-9---9-9-----------6---6-6---------------------------------------
A-7---7-7--9---9-9--4---4-4--7---7-7--5--5--5--5--7-7-7-7-9-9-9-9-
E----------7---7-7-----------5---5-5--3--3--3--3--5-5-5-5-7-7-7-7-

E-----------------------------------------------------------------
B-----------------------------------------------------------------
G-----------------------------------------------------------------
D-9--9-9----------6--6-6----------9--9-9----------6--6-6----------
A-7--7-7--9--9-9--4--4-4--7--7-7--7--7-7--9--9-9--4--4-4--7--7-7--
E---------7--7-7----------5--5-5----------7--7-7----------5--5-5--

E-----------------------------------------------------------------
B-----------------------------------------------------------------
G-----------------------------------------------------------------
D-9---9-9-----------6---6-6---------------------------------------
A-7---7-7--9---9-9--4---4-4--7---7-7--5--5--5--5--7-7-7-7-9-9-9-9-
E----------7---7-7-----------5---5-5--3--3--3--3--5-5-5-5-7-7-7-7-

Verse-bass solo

Chorus-H/dist
E-----------------------------------------------------------------
B-----------------------------------------------------------------
G-----------------------------------------------------------------
D-9--9-9----------6--6-6----------9--9-9----------6--6-6----------
A-7--7-7--9--9-9--4--4-4--7--7-7--7--7-7--9--9-9--4--4-4--7--7-7--
E---------7--7-7----------5--5-5----------7--7-7----------5--5-5--

E-----------------------------------------------------------------
B-----------------------------------------------------------------
G-----------------------------------------------------------------
D-9---9-9-----------6---6-6---------------------------------------
A-7---7-7--9---9-9--4---4-4--7---7-7--5--5--5--5--7-7-7-7-9-9-9-9-
E----------7---7-7-----------5---5-5--3--3--3--3--5-5-5-5-7-7-7-7-

E-----------------------------------------------------------------
B-----------------------------------------------------------------
G-----------------------------------------------------------------
D-9--9-9----------6--6-6----------9--9-9----------6--6-6----------
A-7--7-7--9--9-9--4--4-4--7--7-7--7--7-7--9--9-9--4--4-4--7--7-7--
E---------7--7-7----------5--5-5----------7--7-7----------5--5-5--

E-----------------------------------------------------------------
B-----------------------------------------------------------------
G-----------------------------------------------------------------
D-9---9-9-----------6---6-6---------------------------------------
A-7---7-7--9---9-9--4---4-4--7---7-7--5--5--5--5--7-7-7-7-9-9-9-9-
E----------7---7-7-----------5---5-5--3--3--3--3--5-5-5-5-7-7-7-7-

E-----------------------------------------------------------------
B-----------------------------------------------------------------
G-----------------------------------------------------------------
D-9--9-9----------6--6-6----------9--9-9----------6--6-6----------
A-7--7-7--9--9-9--4--4-4--7--7-7--7--7-7--9--9-9--4--4-4--7--7-7--
E---------7--7-7----------5--5-5----------7--7-7----------5--5-5--

E-----------------------------------------------------------------
B-----------------------------------------------------------------
G-----------------------------------------------------------------
D-9---9-9-----------6---6-6---------------------------------------
A-7---7-7--9---9-9--4---4-4--7---7-7--5--5--5--5--7-7-7-7-9-9-9-9-
E----------7---7-7-----------5---5-5--3--3--3--3--5-5-5-5-7-7-7-7-

E-----------------------------------------------------------------
B-----------------------------------------------------------------
G-----------------------------------------------------------------
D-9--9-9----------6--6-6----------9--9-9----------6--6-6----------
A-7--7-7--9--9-9--4--4-4--7--7-7--7--7-7--9--9-9--4--4-4--7--7-7--
E---------7--7-7----------5--5-5----------7--7-7----------5--5-5--

E-----------------------------------------------------------------
B-----------------------------------------------------------------
G-----------------------------------------------------------------
D-9---9-9-----------6---6-6---------------------------------------
A-7---7-7--9---9-9--4---4-4--7---7-7--5--5--5--5--7-7-7-7-9-9-9-9-
E----------7---7-7-----------5---5-5--3--3--3--3--5-5-5-5-7-7-7-7-
            
Submit corrections

comments powered by Disqus
↑ Back to top | Unsigned Tabs for Fuddle - Ryan. Lyrics for acoustic guitar and electric guitar. 1 Tablatures and chords are parodies/interpretations of the original songs. You may use it for private study, scholarship, research or language learning purposes only