» » »

Unsigned, From Nothing - Distant Memories Bass tabs (ver.1)

Artists:  A B C D E F G H I J K L M N O P Q R S T U V W X Y Z # 

From Nothing - Distant Memories Bass tabs (ver.1)

Unsigned Tabs
 Rating:
4/5 (4 votes)
From Nothing - Distant Memories lessons Tabs too difficult? Try these video lessons and learn fast
1
                Intro Part 1                      Intro Part 2
G--------------------------------|--------------------------------|
D--------------------------------|-------------------4-0----4-----|
A---22-2-2-00-0-0----------------|---22-2-2-00-0-0------------4---|
E-----------------33-3-3-22-2-2--|-----------------33-3-3-22-2-2--|
B--------------------------------|--------------------------------|

Riff 1                            Pre Verse
G--------------------------------|------------------------|
D-----4-0----4------4-0----4-----|------------------------|
A---22-2-2-00-040------------4---|---22-2-2-22-2-2-22222--|
E-----------------33-3-3-22-2-2--|------------------------|
B--------------------------------|------------------------|

Verse
G-----------------------------|
D-----------------------------|
A---2-2-2-0-0-----------------|
E----------3-3-3-2-2-2-23022--|
B-----------------------------|

Chorus
G-------------------------|
D-------------------------|
A-------------44----------|
E---2222222255--44444444--|
B-------------------------|

Bridge
G-----------------------------|
D-----------------------------|
A---222220--------------------|
E---------222220555550444440--|
B-----------------------------|

Outro
G----------------------|
D----------------------|
A----------------------|
E----------------------|
B---12-12-12-12-12//0--|


Intro Part 1....1x
Intro Part 2....1x
Riff 1..........3x
Pre Verse.......1x
Verse...........4x
Chorus..........4x
Pre Verse.......1x
Verse...........4x
Chorus..........8x
Bridge..........8x
Chorus..........8x
Outro...........1x


-----------------------------------------------------------
All Music is Copyright of FN, any coping, you will be sued!
And yes, I did write this song! Copyright 2003 FN/Rob Green
-----------------------------------------------------------
            
Submit corrections

comments powered by Disqus
↑ Back to top | Unsigned Bass for From Nothing - Distant Memories. Lyrics for acoustic guitar and electric guitar. 1 Tablatures and chords are parodies/interpretations of the original songs. You may use it for private study, scholarship, research or language learning purposes only