» » »

Unsigned, Free Trial-Carl/Original Tabs (ver.1)

Artists:  A B C D E F G H I J K L M N O P Q R S T U V W X Y Z # 

Free Trial-Carl/Original Tabs (ver.1)

Unsigned Tabs
 Rating:
4/5 (4 votes)
Free Trial-Carl/Original lessons Tabs too difficult? Try these video lessons and learn fast
                Intro G1 (clean) 
intro repeats 2x
e[-----------------------------------------]
b[-----------------------------------------]
g[-----------------------------------------]
D[-----------------------------------------]
A[-9-9-797-7-7-575-5-5-5-5-5-5-5-5---------] 
E[-7-7-----5-5-----3-3-3-3-3-3-3-3---------]

G2 intro (distorted)
e[-----------------------------------------]
b[-----------------------------------------]
g[-----------------------------------------]
D[-----------------------------------------]
A[-----x-x-x----x-x-x-5-5-5-5-5-5-5-5------] 
E[-----x-x-x----x-x-x-3-3-3-3-3-3-3-3------]

Verse is same as intro just guitar1 is now distorted

chorus both guitars 4x
e[-------------------------------------------------------]
b[-------------------------------------------------------]
g[-------------------------------------------------------]
D[-------------------------------------------------------]
A[-9-9-9-9-9-9-9-9-7-7-7-7-7-7-7-7-5-5-5-5-5-5-5-5-5-5]5-]
E[-7-7-7-7-7-7-7-7-5-5-5-5-5-5-5-5-3-3-3-3-3-3-3-3-3-3-3-]

Form
1 intro
2 verse
3 chorus
4 verse
5 chorus
6solos (comming soon)
7 chorus
8 verse
9 chorus
10 chorus


Thats all for now...Enjoy
            
Submit corrections

comments powered by Disqus
↑ Back to top | Unsigned Tabs for Free Trial-Carl/Original. Lyrics for acoustic guitar and electric guitar. Tablatures and chords are parodies/interpretations of the original songs. You may use it for private study, scholarship, research or language learning purposes only