» » »

Unsigned, Fragle Mnds - Broken Angel Tabs (ver.1)

Artists:  A B C D E F G H I J K L M N O P Q R S T U V W X Y Z # 

Fragle Mnds - Broken Angel Tabs (ver.1)

Unsigned Tabs
 Rating:
4/5 (4 votes)
Fragle Mnds - Broken Angel lessons Tabs too difficult? Try these video lessons and learn fast
                Intro:

E-------------------------------------------------------------
B-------------------------------------------------------------
G-------------------------------------------------------------
D-------------------------------------------------------------
A-------------------------------------------------------------
E-----4---6---7---6------4---6---7---6------4---6---7---6

Chorus:

E------------------------------------
B------------------------------------
G------------------------------------  x4
D------------------------------------
A---6-6-88888----9-9-88888----
E---4-4-66666----7-7-66666----

Verse:

E----------------------------------
B----------------------------------
G----------------------------------
D-----------------------------------
A-----------------------------------
E---4---2---1---0---4---6---7---9
            
Submit corrections

comments powered by Disqus
↑ Back to top | Unsigned Tabs for Fragle Mnds - Broken Angel. Lyrics for acoustic guitar and electric guitar. Tablatures and chords are parodies/interpretations of the original songs. You may use it for private study, scholarship, research or language learning purposes only