» » »

Unsigned, Four Fingers And A Toe - Finally Tabs (ver.1)

Artists:  A B C D E F G H I J K L M N O P Q R S T U V W X Y Z # 

Four Fingers And A Toe - Finally Tabs (ver.1)

Unsigned Tabs
Rating:
0/5 (0 votes)
Four Fingers And A Toe - Finally lessons Tabs too difficult? Try these video lessons and learn fast
                Main Riff/Intro

E--0------0--2--3------2--------------
A----2------------2------0------------
D------2------------0------0----------
G-------------------------------------
B-------------------------------------
E-------------------------------------

Main Chords/Verse-Chorus

E--0-0--0-0-0-0--0-0-0--0----3-3-3--3----2-2-2--2--
A--2-2--2-2-2-2--2-2-2--2----5-5-5--5----4-4-4--4--
D--2-2--2-2-2-2--2-2-2--2----5-5-5--5----4-4-4--4--
G--------------------------------------------------
B--------------------------------------------------
E-------------------------------------------------- 

Chorus/Bridge

E--0-2-3---3---3---2---2---2---0---0---0---2---2---2---
A-------2---2---2---0---0---0---2---2---2---0---0---0--
D--------0---0-------0---0---0---2---2-------0---0-----
G------------------------------------------------------
B------------------------------------------------------
E------------------------------------------------------

End On

E--0-2-3---3-2---0---0---
A-------2-----0------2---
D--------0-----0-----2---
G------------------------
B------------------------
E------------------------

-------------------------------------------------------------
Breakdown
-------------------------------------------------------------
Main Riff/Intro x8 (Main Chords/Verse-Chorus After x4)
Main Riff/Intro-Main Chords/Verse-Chorus x8 
Chorus/Bridge x2
End On
Main Riff/Intro x8 (Main Chords/Verse-Chorus After x4)
Main Riff/Intro-Main Chords/Verse-Chorus x8 
Main Riff/Intro x4
Chorus/Bridge x2 (Play With Main Chords/Verse-Chorus)
End On
            
Submit corrections

comments powered by Disqus
↑ Back to top | Unsigned Tabs for Four Fingers And A Toe - Finally. Lyrics for acoustic guitar and electric guitar. Tablatures and chords are parodies/interpretations of the original songs. You may use it for private study, scholarship, research or language learning purposes only