» » »

Unsigned, Four Fingers And A Toe - Broken Balls Tabs (ver.1)

Artists:  A B C D E F G H I J K L M N O P Q R S T U V W X Y Z # 

Four Fingers And A Toe - Broken Balls Tabs (ver.1)

Unsigned Tabs
 Rating:
4/5 (4 votes)
Four Fingers And A Toe - Broken Balls lessons Tabs too difficult? Try these video lessons and learn fast
                Main Riff/Intro

E-----------------------------------------------------------------------
A--7----7-7-----7ph9----9-9-----9ph11-----11-11-----11ph9-----9-----9---
D----9------9--------9------9---------9---------9---------9-----9-------
G------9------9--------9------9---------9---------9---------9-----9-----
B-----------------------------------------------------------------------
E-----------------------------------------------------------------------

Main Chords

E-----------------------------------------------------------------------
A--7--7--7----7----9--9--9----9----11--11--11----11----9--9--9----9-----
D--9--9--9----9----9--9--9----9----9---9---9-----9-----9--9--9----9-----
G--9--9--9----9----9--9--9----9----9---9---9-----9-----9--9--9----9-----
B-----------------------------------------------------------------------
E-----------------------------------------------------------------------

Heavy Chords

E--7--7--7----7----9--9--9----9----11--11--11----11----9--9--9----9-----
A--9--9--9----9----9--9--9----9----9---9---9-----9-----9--9--9----9-----
D--9--9--9----9----9--9--9----9----9---9---9-----9-----9--9--9----9-----
G-----------------------------------------------------------------------
B-----------------------------------------------------------------------
E-----------------------------------------------------------------------

E-----------------------------------------------------------------------
A---9--9--9----9-----7--------------------------------------------------
D---9--9--9----9-----9-(Hold Until Chord Dies Out)----------------------
G---9--9--9----9-----9--------------------------------------------------
B-----------------------------------------------------------------------
E-----------------------------------------------------------------------

Breakdown
Main Riff/Intro x2
Chords x4
Heavy Chords x1
Main Riff/Intro x2
Chords x2
Heavy Chords x2
Main Riff/Intro x1
Chords x1
Heavy Chords x2
End On
            
Submit corrections

comments powered by Disqus
↑ Back to top | Unsigned Tabs for Four Fingers And A Toe - Broken Balls. Lyrics for acoustic guitar and electric guitar. Tablatures and chords are parodies/interpretations of the original songs. You may use it for private study, scholarship, research or language learning purposes only