» » »

Unsigned, Forced To Change-Constipation Tabs (ver.1)

Artists:  A B C D E F G H I J K L M N O P Q R S T U V W X Y Z # 

Forced To Change-Constipation Tabs (ver.1)

Unsigned Tabs
 Rating:
4/5 (4 votes)
Forced To Change-Constipation lessons Tabs too difficult? Try these video lessons and learn fast
                Constipation #6
S=SLIGHTLY PRESS THE FRET
3xs
|-------------------------------------------------------------|
|-------------------------------------------------------------|
|-----------------------------------------333333-3-3-3-3-3333-|
|-444444-4-4-4-4-4444-333333-3-3-3-3-3333-111111-1-1-1-1-1111-|
|-222222-2-2-2-2-2222-111111-1-1-1-1-1111---------------------|
|-------------------------------------------------------------|
  SSSSSS  S    S      SSSSSS   S   S      SSSSSS   S   S  

1x
|------------------------------------------------------------|
|------------------------------------------------------------|
|------------------------------------------------------------|
|-----------------------------------------33333-3-3-3-3-3333-|
|-444444-4-4-4-4-4444-333333-3-3-3-3-3333-11111-1-1-1-1-1111-|
|-222222-2-2-2-2-2222-111111-1-1-1-1-1111--------------------|
  SSSSSS   S   S      SSSSSS   S   S     SSSSSS   S   S  

|-------------------------------------------------------|
|-------------------------------------------------------|
|-------------------33333333-------------------33333333-|
|-44444444-33333333-11111111-44444444-33333333-11111111-|
|-22222222-11111111----- ----22222222-11111111----------|
|-------------------------------------------------------|
 SSSSSSSSSSSSSSSSSSSSSSSSSSSSSSSSSSSSSSSSSSSSSSSSSSSSSSS

|-------------------------------------------------------|
|-------------------------------------------------------|
|-------------------------------------------------------|
|-------------------33333333-------------------33333333-|
|-44444444-33333333-11111111-44444444-33333333-11111111-|
|-22222222-11111111----------22222222-11111111----------|
SSSSSSSSSSSSSSSSSSSSSSSSSSSSSSSSSSSSSSSSSSSSSSSSSSSSSSSSSS

3Xs
|-------------------------------------------------------------|
|-------------------------------------------------------------|
|-----------------------------------------333333-3-3-3-3-3333-|
|-444444-4-4-4-4-4444-333333-3-3-3-3-3333-111111-1-1-1-1-1111-|
|-222222-2-2-2-2-2222-111111-1-1-1-1-1111---------------------|
|-------------------------------------------------------------|
  SSSSSS   S   S      SSSSSS   S   S      SSSSSS   S   S  

1x
|------------------------------------------------------------|
|------------------------------------------------------------|
|------------------------------------------------------------|
|-----------------------------------------33333-3-3-3-3-3333-|
|-444444-4-4-4-4-4444-333333-3-3-3-3-3333-11111-1-1-1-1-1111-|
|-222222-2-2-2-2-2222-111111-1-1-1-1-1111--------------------|
  SSSSSS   S   S      SSSSSS   S   S      SSSSSS  S   S  

|-------------------------------------------------------|
|-------------------------------------------------------|
|-------------------33333333-------------------33333333-|
|-44444444-33333333-11111111-44444444-33333333-11111111-|
|-22222222-11111111----------22222222-11111111----------|
|-------------------------------------------------------|
SSSSSSSSSSSSSSSSSSSSSSSSSSSSSSSSSSSSSSSSSSSSSSSSSSSSSSSS
|-------------------------------------------------------|
|-------------------------------------------------------|
|-------------------------------------------------------|
|-------------------33333333-------------------33333333-|
|-44444444-33333333-11111111-44444444-33333333-11111111-|
|-22222222-11111111----------22222222-11111111----------|
SSSSSSSSSSSSSSSSSSSSSSSSSSSSSSSSSSSSSSSSSSSSSSSSSSSSSSSS
            
Submit corrections

comments powered by Disqus
↑ Back to top | Unsigned Tabs for Forced To Change-Constipation. Lyrics for acoustic guitar and electric guitar. Tablatures and chords are parodies/interpretations of the original songs. You may use it for private study, scholarship, research or language learning purposes only