» » »

Unsigned, Fonk- Statutary Wrongs Bass tabs (ver.1)

Artists:  A B C D E F G H I J K L M N O P Q R S T U V W X Y Z # 

Fonk- Statutary Wrongs Bass tabs (ver.1)

Unsigned Tabs
 Rating:
4/5 (4 votes)
Fonk- Statutary Wrongs lessons Tabs too difficult? Try these video lessons and learn fast
1
                Intro and post chorus
G-------------------------------------------------------------------------
D-------------------------------------------------------------------------
A-------------------------------------------------------------------------
E-00000000000000000000000000--------------------------
Chorus (rhythm varies) x2
G-------------------------------------------------------------------------
D-------------------------------------------------------------------------
A-------------------------------------------------------------------------
E-00--22--55-454---00--22--55--754--------------------------
Verse 1 x2
G-------------------------------------------------------------------------------
D-------2------2--------2-----2--------2-------2----------------------------
A-----------2-------44-----4------33-----3-------22 2h3p2 0------------
E-00------------------------------------------------------------------3-2------
Bridge x6
G-------------------------------------------------------------------------
D-------------------------------------------------------------------------
A-------------------------------------------------------------------------
E--0-0-0-0-0--4-4-4-4-4--2-2-2-2-2--5-5-5-5-5--------------
Pre chorus
G------------------------------------------------------------------------------------
D------------------------------------------------------2222222222222222-----------
A------------------------------------------------------------------------------------E--44444444444444444-222222222222222-4444444444444444--------------------------------
            
Submit corrections

comments powered by Disqus
↑ Back to top | Unsigned Bass for Fonk- Statutary Wrongs. Lyrics for acoustic guitar and electric guitar. 1 Tablatures and chords are parodies/interpretations of the original songs. You may use it for private study, scholarship, research or language learning purposes only