» » »

Fondling Amber- Words Of Wisdom Tabs (ver.1)

Artists:  A B C D E F G H I J K L M N O P Q R S T U V W X Y Z # 

Fondling Amber- Words Of Wisdom Tabs (ver.1)

Unsigned
Rating:
0/5 (0 votes)

Hard to play? Try these video lessons and learn fast.
                VERSE
-----------------------------------------------------
-----------------------------------------------------
-11-x-11-11-x----------------------------------------
-11-x-11-11-x-11-x-11-11-x-13-x-13-13-x--9-x-9-9-x---X8
-9--x-9--9--x-11-x-11-11-x-13-x-13-13-x--9-x-9-9-x---
--------------9--x-9--9--x-11-x-11-11-x--7-x-7-7-x---

    HORUS
-----------------------------------------------------
-----------------------------------------------------
-11-11-11-11-11-11-11-11-----------------------------
-11-11-11-11-11-11-11-11--11-11-11-11-11-11-11-11----
-9--9--9--9--9--9--9--9---11-11-11-11-11-11-11-11----
--------------------------9--9--9--9--9--9--9--9-----

-----------------------------------------------------
-----------------------------------------------------
-----------------------------------------------------
-13-13-13-13-13-13-13-13--9-9-9-9-9-9-9-9------------X4
-13-13-13-13-13-13-13-13--9-9-9-9-9-9-9-9------------
-11-11-11-11-11-11-11-11--7-7-7-7-7-7-7-7------------
            
Hard to play? Try these video lessons and learn fast. | Correct




comments powered by Disqus
↑ Back to top | Tablatures and chords are parodies/interpretations of the original songs. You may use it for private study, scholarship, research or language learning purposes only