» » »

Floor 13 - I Tabs (ver.1)

Artists:  A B C D E F G H I J K L M N O P Q R S T U V W X Y Z # 

Floor 13 - I Tabs (ver.1)

Unsigned
Rating:
0/5 (0 votes)

Hard to play? Try these video lessons and learn fast.
                Artist – Floor 13
Song – I
Album - ?
Tuning – Drop-D

Intro:
Guitar 1 Clean
|-----------------------------------|
|-----------------------------------|
|-----------------------------------| Repeat
|-----------------------------------|  4x
|---------------8-8888\3-3333-3h5p3-|
|0-0000-0000-00---------------------|

Guitar 2 Clean
|-----------------------------------|
|-----------------------------------|
|-----------------------------------| Repeat
|---------------------8-------------|   4x
|---------------------------8-------|
|--------------8--------------------|

Main Riff:
Guitar 1 Distorted
|------------------------------------|         |--------------|
|------------------------------------|         |--------------| Play
|---1010---101010--------------------|  Repeat |--------------|  This
|0-0-x-x0-0-x-x-x-0-8-8888\3-3333-33-|    4x   |\3-3333-3h5p3-|  2nd and
|0-0-8-80-0-8-8-8-0-8-8888\3-3333-33-|         |\3-3333-3h5p3-| 4th time
|0-0----0-0-------0-8-8888\3-3333-33-|         |\3-3333-3h5p3-|

Guitar 2 Distorted
|----------------------------------|           |--------------|
|----------------------------------|           |--------------| Play
|----------------------------------|  Repeat   |--------------|  This
|0-0-000-0-000-00-8-8888\3-3333-33-|    4x     |\3-3333-3h5p3-|  2nd and
|0-0-000-0-000-00-8-8888\3-3333-33-|           |\3-3333-3h5p3-| 4th time
|0-0-000-0-000-00-8-8888\3-3333-33-|           |\3-3333-3h5p3-|
     ..    ..

Fast Riff:
Guitar 1 & 2 Distorted
Guitar 1 plays one time by himself, then Guitar 2 comes in
|----------------------------------------------|
|----------------------------------------------|
|----------------------------------------------| Repeat
|0-0-0-0-------1-1-0-0-0-0-777-555-333-2h3-2h3-|   4x
|0-0-0-0-------1-1-0-0-0-0-777-555-333-2h3-2h3-|
|0-0-0-0-00000-1-1-0-0-0-0-777-555-333-2h3-2h3-|
 . . . . .....     . . . . ..  ..  ..

Main Riff
Fast Riff
Intro
Main Riff

Easy easy easy song!!!  Super cool however!!!  Yeah check out Floor 13 in Stanwood WA!!! YEAH!!!
            
Hard to play? Try these video lessons and learn fast. | Correct




comments powered by Disqus
↑ Back to top | Tablatures and chords are parodies/interpretations of the original songs. You may use it for private study, scholarship, research or language learning purposes only