» » »

Flipped-School Tabs (ver.1)

Artists:  A B C D E F G H I J K L M N O P Q R S T U V W X Y Z # 

Flipped-School Tabs (ver.1)

Unsigned
Rating:
0/5 (0 votes)

Hard to play? Try these video lessons and learn fast.
                this song is called school by a band called fl!pped

intro
------------------------------------4-4-4-4-4-4---4-4-4-4-4-4-------------------------
-4-4-4-4-4-4---4-4-4-4-4-4----4-4-4-4-4-4---4-4-4-4-4-4--------------------------
-4-4-4-4-4-4---4-4-4-4-4-4----2-2-2-2-2-2---2-2-2-2-2-2---------x2-----------------
-2-2-2-2-2-2---2-2-2-2-2-2-----------------------------------------------------------

Verse and 2nd intro

-5-5-5-5-5-57-7-7-7-7-7-3-3-3-3-3-3------------------------------------------------------
-5-5-5-5-5-57-7-7-7-7-7-3-3-3-3-3-3-------x3---------------------------------------------
-3-3-3-3-3-35-5-5-5-5-5-1-1-1-1-1-1------------------------------------------------------

chorus

-5-5-5-5-5-1-1-1-1-1-4-4-4-4-4----------------------------------------------------------------------------------------
-5-5-5-5-5-2-2-2-2-2-4-4-4-4-4-5-5-5-5-5------------------------------------------------------------------                                  -                 -3-3-3-3-3-2-2-2-2-2-2-2-2-2-2-3-3-3-3-3-----------------------------------------------------

outro
-5-5-5-5-5-5-5-5-5----------------------------------------------------------------------------------------------
-5-5-5-5-5-5-5-5-5-5-5-5-5-5-5-5-5-5----x2---------------------------------------------------------------------------------
-3-3-3-3-3-3-3-3-3-5-5-5-5-5-5-5-5-5-------------------------------------------------------------------------------------
------------------------3-3-3-3-3-3-3-3-3-----------------------------------------------------------------------
order
intro
verse with out words
verse
intro
chorus
intro
chorus
outro
this song is called school by a band called fl!pped

intro
------------------------------------4-4-4-4-4-4---4-4-4-4-4-4-------------------------
-4-4-4-4-4-4---4-4-4-4-4-4----4-4-4-4-4-4---4-4-4-4-4-4--------------------------
-4-4-4-4-4-4---4-4-4-4-4-4----2-2-2-2-2-2---2-2-2-2-2-2---------x2-----------------
-2-2-2-2-2-2---2-2-2-2-2-2-----------------------------------------------------------

Verse and 2nd intro

-5-5-5-5-5-57-7-7-7-7-7-3-3-3-3-3-3------------------------------------------------------
-5-5-5-5-5-57-7-7-7-7-7-3-3-3-3-3-3-------x3---------------------------------------------
-3-3-3-3-3-35-5-5-5-5-5-1-1-1-1-1-1------------------------------------------------------

chorus

-5-5-5-5-5-1-1-1-1-1-4-4-4-4-4----------------------------------------------------------------------------------------
-5-5-5-5-5-2-2-2-2-2-4-4-4-4-4-5-5-5-5-5------------------------------------------------------------------                                  -                 -3-3-3-3-3-2-2-2-2-2-2-2-2-2-2-3-3-3-3-3-----------------------------------------------------

outro
-5-5-5-5-5-5-5-5-5----------------------------------------------------------------------------------------------
-5-5-5-5-5-5-5-5-5-5-5-5-5-5-5-5-5-5----x2---------------------------------------------------------------------------------
-3-3-3-3-3-3-3-3-3-5-5-5-5-5-5-5-5-5-------------------------------------------------------------------------------------
------------------------3-3-3-3-3-3-3-3-3-----------------------------------------------------------------------
order
intro
verse with out words
verse
intro
chorus
intro
chorus
outro
            
Hard to play? Try these video lessons and learn fast. | Correct




comments powered by Disqus
↑ Back to top | Tablatures and chords are parodies/interpretations of the original songs. You may use it for private study, scholarship, research or language learning purposes only