» » »

Unsigned, Finger Lickin Chicken-Mmm Mmm Good Tabs (ver.1)

Artists:  A B C D E F G H I J K L M N O P Q R S T U V W X Y Z # 

Finger Lickin Chicken-Mmm Mmm Good Tabs (ver.1)

Unsigned Tabs
 Rating:
4/5 (4 votes)
Finger Lickin Chicken-Mmm Mmm Good lessons Tabs too difficult? Try these video lessons and learn fast
1
                Tuning: Standard (EADGBe)
 
Palm mute= p
    Slide= /

                                                                             
Intro
e|----------------------------------------------------|
B|--5-----5-----4------4------3------3------2---------|
G|-----4-----4------4------4------2-----2-------2-----|
D|----------------------------------------------------|
A|----------------------------------------------------|
E|----------------------------------------------------|
                                                                              

Verse
e|--------------------------------------|
B|--------------------------------------|
G|--99-9-99--44-4-44--66-6-66-----------| Repeat 4x
D|--99-9-99--44-4-44--66-6-66--77-7-77--|
A|--77-7-77--22-2-22--44-4-44--77-7-77--|
E|-----------------------------55-5-55--|
    pp p pp  pp p pp  pp p pp  pp p pp                                                          

Pre-Chorus
e|--0--0--0--|
B|--5--4--2--|
G|--5--4--2--|
D|-----------|
A|-----------|
E|-----------|
                                                                              
Chorus
e|---------------------------------------|
B|---------------------------------------|
G|--99999-----44444-----66666------------| Repeat 3x
D|--99999-----44444-----66666-----77777--|
A|--77777—7/2-22222-2/4-44444-----77777--|
E|----------------------------9/5-55555--|
   


Verse
    pp p pp  pp p pp  pp p pp  pp p pp
e|--------------------------------------|
B|--------------------------------------|
G|--99-9-99--44-4-44--66-6-66-----------| Repeat 4x
D|--99-9-99--44-4-44--66-6-66--77-7-77--|
A|--77-7-77--22-2-22--44-4-44--77-7-77--|
E|-----------------------------55-5-55--|
                                           
     


Pre-Chorus
e|--0--0--0--|
B|--5--4--2--|
G|--5--4--2--|
D|-----------|
A|-----------|
E|-----------| 

Chorus
e|---------------------------------------|
B|---------------------------------------|
G|--99999-----44444-----66666------------| Repeat 3x
D|--99999-----44444-----66666-----77777--|
A|--77777—7/2-22222-2/4-44444-----77777--|
E|----------------------------9/5-55555--|
                                                                              
Ending
e|----------------------|
B|----------------------|
G|--6--4—-9--999--------|
D|--6--4--9--999--------|
A|--4--2--7--777--------|
E|----------------------|
            
Submit corrections

comments powered by Disqus
↑ Back to top | Unsigned Tabs for Finger Lickin Chicken-Mmm Mmm Good. Lyrics for acoustic guitar and electric guitar. 1 Tablatures and chords are parodies/interpretations of the original songs. You may use it for private study, scholarship, research or language learning purposes only