» » »

Unsigned, Finalnotice - Song Bass tabs (ver.1)

Artists:  A B C D E F G H I J K L M N O P Q R S T U V W X Y Z # 

Finalnotice - Song Bass tabs (ver.1)

Unsigned Tabs
 Rating:
4/5 (4 votes)
Finalnotice - Song lessons Tabs too difficult? Try these video lessons and learn fast
1
                INTRO-PART 1
G-----------------------------------------------------------------------------------
D-----------------------------------------------------------------------------------
A---5-------------------------------------------------------------------------------
E--------------5----------3---------5-----------------------------------------------
INTRO-PART 2
G-----------------------------------------------------------------------------------
D-----------------------------------------------------------------------------------
A---5-5-5-5-5-5-5-5-----------------------------------------------------------------E-------------------5-5-5-5-5-5-5-5-3-3-3-3-3-3-3-3-5-5-5-5-5-5-5-5-----------------
VERSE
G-----------------------------------------------------------------------------------
D----7-5-4-------4---7-5-4------------7-5-4-------4-------4-----------4-------------
A--5-------7-5-7---5-------7-5-4-5--5-------7-5-7---7-5-7---7-5-4-5-7---7-5---------
E-----------------------------------------------------------------------------------
CHORUS
G-----------------------------------------------------------------------------------
D-----------------------------------------------------------------------------------
A---5-5-5-5-5-5-5-5--9-9-9-9-9-9-9-9------------------------------------------------
E-------------------------------------7-7-7-7-7-7-7-7--9-9-9-9-/-5-5-5-5------------

INTRO-PART 1
INTRO-PART 2
VERSE X2
INTRO X2
CHORUS X2
VERSE X2
CHORUS X4
END
            
Submit corrections

comments powered by Disqus
↑ Back to top | Unsigned Bass for Finalnotice - Song. Lyrics for acoustic guitar and electric guitar. 1 Tablatures and chords are parodies/interpretations of the original songs. You may use it for private study, scholarship, research or language learning purposes only