» » »

Fernands Band - Punkers Tabs (ver.1)

Artists:  A B C D E F G H I J K L M N O P Q R S T U V W X Y Z # 

Fernands Band - Punkers Tabs (ver.1)

Unsigned
Rating:
0/5 (0 votes)

Hard to play? Try these video lessons and learn fast.
                [Fernand's Band]




[2003]




[Song title: Punkers]




THERES ONLY A FEW RIFFS AND THEY ARE REPEATED.



FUN SONG TO PLAY



HERE IT IS ENJOY.




Intro

e
b
g                            X4
d
a
e 1-1-1-1-1-1-1-1-1-1-3



Riff

e-------
b-------
g-------
d-------             X6
a-------
e-0-0-1-1-0-0-1-1

Riff

e----------
b----------
g----------           X6
d----------
a----------
e-2-2-5-5-2-2-5-5--


Chorus

e------------
b------------
g------------          X 8
d------------
a-----2-2-----2-2-
e-0-1-----0-1-----


Riff

e-------
b-------
g-------
d-------             X6
a-------
e-0-0-1-1-0-0-1-1


Riff

e--7---2---------------------
b----4---1------------------
g-----------3---2-----------
d-------------4---1-1-2-2-3-
a---------------------------
e---------------------------

Chorus

e------------
b------------
g------------          X 8
d------------
a-----2-2-----2-2-
e-0-1-----0-1-----

Riff

e----------
b----------
g----------           X6
d----------
a----------
e-2-2-5-5-2-2-5-5--

Outro

e----------
b----------
g--------------
d--------------       X 3
a----2-2-3-----
e--0-----------


Last notes

e-22~~-------
b-22~~-------   (THATS TWENTY-TWO, NOT TWO)
g-22~~-------
d-22~~-------
a-22~~-------
e-22~~-------
            
Hard to play? Try these video lessons and learn fast. | Correct




comments powered by Disqus
↑ Back to top | Tablatures and chords are parodies/interpretations of the original songs. You may use it for private study, scholarship, research or language learning purposes only