» » »

Unsigned, Fernands Band - Love Tabs (ver.1)

Artists:  A B C D E F G H I J K L M N O P Q R S T U V W X Y Z # 

Fernands Band - Love Tabs (ver.1)

Unsigned Tabs
 Rating:
4/5 (4 votes)
Fernands Band - Love lessons Tabs too difficult? Try these video lessons and learn fast
                fernands band





2003




song title : love



(changed 100%)



-------3-----
-2-2-2---4-4-0----

---2----3---4--
-2---2----4---0-

-2---2---4-4-0-
---2---3---

------4---5-0----
--3-3---5---0----

----3-3---4---0
--2-----5---4-

-----0---2---0
-5-5---4---3--

---1---2-2-2-3--0-
-1---1-------3--0-

---7---7-----0-------
-7---8---9-9-0---------

-----5-----7----4-4-0------
--6-----6--7--5-----0------

---4------3-3-----0
-5---6-6------4-5-0--

--3---2-----5----3-0----
----4---3-3---4----0----

-3---5---6-4--0-----------
-3-3---7---4--0-----------

-----3--------2---1-0-----
-4-4--5-3-3-4---2-1-0----------

-5---5---5---8-8-------
---7---7---7-----0----

-3---7----4-4-0-----
---3----5--------

--0-0-4--0--------------
-7-7-5-3-0---------------

-3---3--5-5-0-----
---4----------

--5---4---0---
4---3---3-----

---7---6-6---0--
-9---8-----7---

-----4----4-4----
-5-5---3-3----8-0---

Outro riff

---------------4-3-
-------------3----0
---------4-3------0
-------5----------0
---2-0------------1
-3----------------x
            
Submit corrections

comments powered by Disqus
↑ Back to top | Unsigned Tabs for Fernands Band - Love. Lyrics for acoustic guitar and electric guitar. Tablatures and chords are parodies/interpretations of the original songs. You may use it for private study, scholarship, research or language learning purposes only