» » »

Unsigned, Fernands Band - Kill The Kkk Tabs (ver.1)

Artists:  A B C D E F G H I J K L M N O P Q R S T U V W X Y Z # 

Fernands Band - Kill The Kkk Tabs (ver.1)

Unsigned Tabs
 Rating:
4/5 (4 votes)
Fernands Band - Kill The Kkk lessons Tabs too difficult? Try these video lessons and learn fast
                [Fernand's band]






[2003]





[Song title: Kill the KKK]





ALSO ANOTHER EASY SONG TO PLAY AND FUN




INTRO


e---------------------
B---------------------
G---------------------
D---------------------    X 4
A-3-3-3------3-3-3----
E--------5-5-------1-1


Main Riff

e---------------------
B---------------------
G--8-0-8-0-7-0-7-0----  X 5
D---------------------
A---------------------
E---------------------


Riff 2

e----------------
B----------------
G----------------
D------1-1-1---4-4-4--
A---0--1-1-1-3-4-4-4-----
E---0--------3-----


Chorus

e---------------
B---------------
G---------------
D---------------          X 5
A-----3-----18-----
E--2-----17----16----


Main Riff

e---------------------
B---------------------
G--8-0-8-0-7-0-7-0----  X 5
D---------------------
A---------------------
E---------------------


Riff 


e--0-0-0-----1-1-1---------3-3-3----00
B--0-0-0-----1-1-1---------3-3-3----00
G---------7-----------3-------------00    X2
D-------------------2---------------00
A-----------------------------------00
E-----------------------------------00


Chorus

e---------------
B---------------
G---------------
D---------------          X 5
A-----3-----18-----
E--2-----17----16----


Main Riff

e---------------------
B---------------------
G--8-0-8-0-7-0-7-0----  X 5
D---------------------
A---------------------
E---------------------


Outro

e-----------------
B-----------------
G-----------------
D-----------------3-3
A-----------------3-3                X2
E--1-0-1-0-1-0-1--3-3-----
            
Submit corrections

comments powered by Disqus
↑ Back to top | Unsigned Tabs for Fernands Band - Kill The Kkk. Lyrics for acoustic guitar and electric guitar. Tablatures and chords are parodies/interpretations of the original songs. You may use it for private study, scholarship, research or language learning purposes only