» » »

Unsigned, Fernands Band - Gangs Tabs (ver.1)

Artists:  A B C D E F G H I J K L M N O P Q R S T U V W X Y Z # 

Fernands Band - Gangs Tabs (ver.1)

Unsigned Tabs
Rating:
0/5 (0 votes)
Fernands Band - Gangs lessons Tabs too difficult? Try these video lessons and learn fast
                [Fernand's Band]

[2003]

[Song title: Gangs]

easy song. i saw fernand and his band play this along with all his other songs that i am trying to tab out .

intro

----------
----------
----------
----------    X8
---2----3---
-1---0------

riff

------------
------------
------------
------------
-----1-----1--         X 4
-0-0-1-2-2-1-3-----


riff

-------------
-------------
-------------
-------------         X 3
-3---2--1--4-----
-3-0-2--1--4------


chorus

-------------------
-------------------
-------------------             X2
-------------------
-----6/2-------4-4------
-7/1------5/3------5-5-0----



riff

------------
-----------
---------5--
-------4---       X5
-----3-----
-0-0----------


riff

---------
----------
----------
---------       X10
-17~-------
-17~---------


chorus

-------------------
-------------------
-------------------             X2
-------------------
-----6/2-------4-4------
-7/1------5/3------5-5-0----


outro

--------
----------
---------
-----------------------------5-5-5----
-----------------------------5-5-5----
-7/8/9/10/11/12/13/14/15-----5-5-5----
            
Submit corrections

comments powered by Disqus
↑ Back to top | Unsigned Tabs for Fernands Band - Gangs. Lyrics for acoustic guitar and electric guitar. Tablatures and chords are parodies/interpretations of the original songs. You may use it for private study, scholarship, research or language learning purposes only