» » »

Fernands Band - Die Tabs (ver.1)

Artists:  A B C D E F G H I J K L M N O P Q R S T U V W X Y Z # 

Fernands Band - Die Tabs (ver.1)

Unsigned
Rating:
0/5 (0 votes)

Hard to play? Try these video lessons and learn fast.
                [Fernand's Band]




[2003]




[Song title: Die]




Intro

e--------
B--------
G------------3-3
D----4-4---2-3-3-4-     X2
A----4-4-0-2-3-3-4-5-5
E----3-3-0---------5-5

Riff

e---------
B---------
G-------8~--
D---4-5-----   X4
A-3-4-5------
E-3--------

Chorus

e-----------
B-----------
G-----------
D----------3~----           X5
A----1mute-3mute---------
E----1mute-3mute---------

Riff

e------------
B------------
G-----5-------
D-3---5--------       X3
A-3-4---0-0-0-1----
E---4---0-0-0-1---

Riff____________________________________
                                        |
e-7h9---7h9--7-7-9-  tremolo picking    |
B------------------  wah and distortion |
G------------------  played fast        |
D------------------  X 6                |
A------------------                     |
E------------------                     |
________________________________________|

Chorus

e-----------------
B-----------------
G-----------------
D----------3~-------             X5
A----1mute-3mute---------------
E----1mute-3mute---------------

Riff

e
B
G
D
A------5---     X4
E----5-5--5-0-

Outro
(! = wah and distortion)
e
B
G--------------
D-------------3!--
A--2!---2!----3!---
E----0!----0!-3!---

Enjoy
            
Hard to play? Try these video lessons and learn fast. | Correct




comments powered by Disqus
↑ Back to top | Tablatures and chords are parodies/interpretations of the original songs. You may use it for private study, scholarship, research or language learning purposes only